  0
SECTION
  2
HEADER
  9
$ACADVER
  1
AC1015
  9
$ACADMAINTVER
 70
    20
  9
$DWGCODEPAGE
  3
ANSI_1252
  9
$INSBASE
 10
0.0
 20
0.0
 30
0.0
  9
$EXTMIN
 10
-0.0208574753271904
 20
-0.0243578207038553
 30
-0.0015258207003583
  9
$EXTMAX
 10
19.85089240128903
 20
27.55201241608173
 30
0.0000000349246037
  9
$LIMMIN
 10
-0.5793749809265137
 20
-1.079374980926513
  9
$LIMMAX
 10
20.42062501907349
 20
28.62062501907349
  9
$ORTHOMODE
 70
     0
  9
$REGENMODE
 70
     1
  9
$FILLMODE
 70
     1
  9
$QTEXTMODE
 70
     0
  9
$MIRRTEXT
 70
     0
  9
$LTSCALE
 40
1.0
  9
$ATTMODE
 70
     1
  9
$TEXTSIZE
 40
18.0
  9
$TRACEWID
 40
0.05
  9
$TEXTSTYLE
  7
platte tekst
  9
$CLAYER
  8
A03-_TEXT
  9
$CELTYPE
  6
ByLayer
  9
$CECOLOR
 62
   256
  9
$CELTSCALE
 40
1.0
  9
$DISPSILH
 70
     0
  9
$DIMSCALE
 40
50.0
  9
$DIMASZ
 40
0.15
  9
$DIMEXO
 40
0.5
  9
$DIMDLI
 40
0.5
  9
$DIMRND
 40
0.0
  9
$DIMDLE
 40
0.0
  9
$DIMEXE
 40
0.2
  9
$DIMTP
 40
0.0
  9
$DIMTM
 40
0.0
  9
$DIMTXT
 40
0.2
  9
$DIMCEN
 40
0.1
  9
$DIMTSZ
 40
0.0
  9
$DIMTOL
 70
     0
  9
$DIMLIM
 70
     0
  9
$DIMTIH
 70
     0
  9
$DIMTOH
 70
     0
  9
$DIMSE1
 70
     1
  9
$DIMSE2
 70
     1
  9
$DIMTAD
 70
     1
  9
$DIMZIN
 70
     8
  9
$DIMBLK
  1

  9
$DIMASO
 70
     1
  9
$DIMSHO
 70
     1
  9
$DIMPOST
  1

  9
$DIMAPOST
  1
m
  9
$DIMALT
 70
     0
  9
$DIMALTD
 70
     2
  9
$DIMALTF
 40
0.01
  9
$DIMLFAC
 40
1.0
  9
$DIMTOFL
 70
     1
  9
$DIMTVP
 40
0.0
  9
$DIMTIX
 70
     1
  9
$DIMSOXD
 70
     0
  9
$DIMSAH
 70
     1
  9
$DIMBLK1
  1
DIML
  9
$DIMBLK2
  1
DIMR
  9
$DIMSTYLE
  2
4 Lezze 1-50 DIMEXT
  9
$DIMCLRD
 70
     0
  9
$DIMCLRE
 70
     0
  9
$DIMCLRT
 70
     0
  9
$DIMTFAC
 40
1.0
  9
$DIMGAP
 40
0.1
  9
$DIMJUST
 70
     0
  9
$DIMSD1
 70
     0
  9
$DIMSD2
 70
     0
  9
$DIMTOLJ
 70
     1
  9
$DIMTZIN
 70
     0
  9
$DIMALTZ
 70
     8
  9
$DIMALTTZ
 70
     0
  9
$DIMUPT
 70
     0
  9
$DIMDEC
 70
     0
  9
$DIMTDEC
 70
     0
  9
$DIMALTU
 70
     2
  9
$DIMALTTD
 70
     2
  9
$DIMTXSTY
  7
DIM
  9
$DIMAUNIT
 70
     1
  9
$DIMADEC
 70
     4
  9
$DIMALTRND
 40
0.0
  9
$DIMAZIN
 70
     0
  9
$DIMDSEP
 70
    46
  9
$DIMATFIT
 70
     1
  9
$DIMFRAC
 70
     1
  9
$DIMLDRBLK
  1

  9
$DIMLUNIT
 70
     2
  9
$DIMLWD
 70
    -2
  9
$DIMLWE
 70
    -2
  9
$DIMTMOVE
 70
     0
  9
$LUNITS
 70
     2
  9
$LUPREC
 70
     4
  9
$SKETCHINC
 40
0.1
  9
$FILLETRAD
 40
0.05
  9
$AUNITS
 70
     0
  9
$AUPREC
 70
     0
  9
$MENU
  1
.
  9
$ELEVATION
 40
0.0
  9
$PELEVATION
 40
0.0
  9
$THICKNESS
 40
0.0
  9
$LIMCHECK
 70
     0
  9
$CHAMFERA
 40
0.0
  9
$CHAMFERB
 40
0.0
  9
$CHAMFERC
 40
1.0
  9
$CHAMFERD
 40
0.0
  9
$SKPOLY
 70
     0
  9
$TDCREATE
 40
2457522.483976401
  9
$TDUCREATE
 40
2457522.400643067
  9
$TDUPDATE
 40
2457522.484172662
  9
$TDUUPDATE
 40
2457522.400839329
  9
$TDINDWG
 40
0.0001771412
  9
$TDUSRTIMER
 40
0.0001771412
  9
$USRTIMER
 70
     1
  9
$ANGBASE
 50
0.0
  9
$ANGDIR
 70
     0
  9
$PDMODE
 70
     0
  9
$PDSIZE
 40
0.0
  9
$PLINEWID
 40
0.0
  9
$SPLFRAME
 70
     0
  9
$SPLINETYPE
 70
     6
  9
$SPLINESEGS
 70
     8
  9
$HANDSEED
  5
32E
  9
$SURFTAB1
 70
     6
  9
$SURFTAB2
 70
     6
  9
$SURFTYPE
 70
     6
  9
$SURFU
 70
     6
  9
$SURFV
 70
     6
  9
$UCSBASE
  2

  9
$UCSNAME
  2

  9
$UCSORG
 10
0.0
 20
0.0
 30
0.0
  9
$UCSXDIR
 10
1.0
 20
0.0
 30
0.0
  9
$UCSYDIR
 10
0.0
 20
1.0
 30
0.0
  9
$UCSORTHOREF
  2

  9
$UCSORTHOVIEW
 70
     0
  9
$UCSORGTOP
 10
0.0
 20
0.0
 30
0.0
  9
$UCSORGBOTTOM
 10
0.0
 20
0.0
 30
0.0
  9
$UCSORGLEFT
 10
0.0
 20
0.0
 30
0.0
  9
$UCSORGRIGHT
 10
0.0
 20
0.0
 30
0.0
  9
$UCSORGFRONT
 10
0.0
 20
0.0
 30
0.0
  9
$UCSORGBACK
 10
0.0
 20
0.0
 30
0.0
  9
$PUCSBASE
  2

  9
$PUCSNAME
  2

  9
$PUCSORG
 10
0.0
 20
0.0
 30
0.0
  9
$PUCSXDIR
 10
1.0
 20
0.0
 30
0.0
  9
$PUCSYDIR
 10
0.0
 20
1.0
 30
0.0
  9
$PUCSORTHOREF
  2

  9
$PUCSORTHOVIEW
 70
     0
  9
$PUCSORGTOP
 10
0.0
 20
0.0
 30
0.0
  9
$PUCSORGBOTTOM
 10
0.0
 20
0.0
 30
0.0
  9
$PUCSORGLEFT
 10
0.0
 20
0.0
 30
0.0
  9
$PUCSORGRIGHT
 10
0.0
 20
0.0
 30
0.0
  9
$PUCSORGFRONT
 10
0.0
 20
0.0
 30
0.0
  9
$PUCSORGBACK
 10
0.0
 20
0.0
 30
0.0
  9
$USERI1
 70
     0
  9
$USERI2
 70
     0
  9
$USERI3
 70
     0
  9
$USERI4
 70
     0
  9
$USERI5
 70
     0
  9
$USERR1
 40
0.0
  9
$USERR2
 40
0.0
  9
$USERR3
 40
0.0
  9
$USERR4
 40
0.0
  9
$USERR5
 40
0.0
  9
$WORLDVIEW
 70
     1
  9
$SHADEDGE
 70
     3
  9
$SHADEDIF
 70
    70
  9
$TILEMODE
 70
     1
  9
$MAXACTVP
 70
    64
  9
$PINSBASE
 10
0.0
 20
0.0
 30
0.0
  9
$PLIMCHECK
 70
     0
  9
$PEXTMIN
 10
1.000000000000000E+20
 20
1.000000000000000E+20
 30
1.000000000000000E+20
  9
$PEXTMAX
 10
-1.000000000000000E+20
 20
-1.000000000000000E+20
 30
-1.000000000000000E+20
  9
$PLIMMIN
 10
0.0
 20
0.0
  9
$PLIMMAX
 10
12.0
 20
9.0
  9
$UNITMODE
 70
     0
  9
$VISRETAIN
 70
     1
  9
$PLINEGEN
 70
     0
  9
$PSLTSCALE
 70
     1
  9
$TREEDEPTH
 70
  3020
  9
$CMLSTYLE
  2
Standard
  9
$CMLJUST
 70
     0
  9
$CMLSCALE
 40
1.0
  9
$PROXYGRAPHICS
 70
     1
  9
$MEASUREMENT
 70
     1
  9
$CELWEIGHT
370
    -1
  9
$ENDCAPS
280
     0
  9
$JOINSTYLE
280
     0
  9
$LWDISPLAY
290
     0
  9
$INSUNITS
 70
     4
  9
$HYPERLINKBASE
  1

  9
$STYLESHEET
  1

  9
$XEDIT
290
     1
  9
$CEPSNTYPE
380
     0
  9
$PSTYLEMODE
290
     1
  9
$FINGERPRINTGUID
  2
{AE6EDCB6-C47C-44AA-B583-2553BD46D8F0}
  9
$VERSIONGUID
  2
{830F8302-181E-4DB1-AB13-7851D8AA8FBE}
  9
$EXTNAMES
290
     1
  9
$PSVPSCALE
 40
0.0
  9
$OLESTARTUP
290
     0
  0
ENDSEC
  0
SECTION
  2
CLASSES
  0
CLASS
  1
ACDBDICTIONARYWDFLT
  2
AcDbDictionaryWithDefault
  3
ObjectDBX Classes
 90
        0
280
     0
281
     0
  0
CLASS
  1
MATERIAL
  2
AcDbMaterial
  3
ObjectDBX Classes
 90
     1153
280
     0
281
     0
  0
CLASS
  1
VISUALSTYLE
  2
AcDbVisualStyle
  3
ObjectDBX Classes
 90
     4095
280
     0
281
     0
  0
CLASS
  1
SCALE
  2
AcDbScale
  3
ObjectDBX Classes
 90
     1153
280
     0
281
     0
  0
CLASS
  1
TABLESTYLE
  2
AcDbTableStyle
  3
ObjectDBX Classes
 90
     4095
280
     0
281
     0
  0
CLASS
  1
MLEADERSTYLE
  2
AcDbMLeaderStyle
  3
ACDB_MLEADERSTYLE_CLASS
 90
     4095
280
     0
281
     0
  0
CLASS
  1
ACDBSECTIONVIEWSTYLE
  2
AcDbSectionViewStyle
  3
ObjectDBX Classes
 90
     1025
280
     0
281
     0
  0
CLASS
  1
ACDBDETAILVIEWSTYLE
  2
AcDbDetailViewStyle
  3
ObjectDBX Classes
 90
     1025
280
     0
281
     0
  0
CLASS
  1
SORTENTSTABLE
  2
AcDbSortentsTable
  3
ObjectDBX Classes
 90
        0
280
     0
281
     0
  0
CLASS
  1
DICTIONARYVAR
  2
AcDbDictionaryVar
  3
ObjectDBX Classes
 90
        0
280
     0
281
     0
  0
CLASS
  1
CELLSTYLEMAP
  2
AcDbCellStyleMap
  3
ObjectDBX Classes
 90
     1152
280
     0
281
     0
  0
CLASS
  1
ACDBPLACEHOLDER
  2
AcDbPlaceHolder
  3
ObjectDBX Classes
 90
        0
280
     0
281
     0
  0
CLASS
  1
LAYOUT
  2
AcDbLayout
  3
ObjectDBX Classes
 90
        0
280
     0
281
     0
  0
ENDSEC
  0
SECTION
  2
TABLES
  0
TABLE
  2
VPORT
  5
8
330
0
100
AcDbSymbolTable
 70
     1
  0
VPORT
  5
57
330
8
100
AcDbSymbolTableRecord
100
AcDbViewportTableRecord
  2
*Active
 70
     0
 10
0.0
 20
0.0
 11
1.0
 21
1.0
 12
9.915017462980923
 22
13.76382729768894
 13
0.0
 23
0.0
 14
10.0
 24
10.0
 15
10.0
 25
10.0
 16
0.0
 26
0.0
 36
1.0
 17
0.0
 27
0.0
 37
0.0
 40
27.74216003780835
 41
1.862587763289869
 42
50.0
 43
0.0
 44
0.0
 50
0.0
 51
0.0
 71
     0
 72
   100
 73
     1
 74
     1
 75
     0
 76
     0
 77
     0
 78
     0
281
     0
 65
     1
110
0.0
120
0.0
130
0.0
111
1.0
121
0.0
131
0.0
112
0.0
122
1.0
132
0.0
 79
     0
146
0.0
1001
ACAD_NAV_VCDISPLAY
1070
     3
  0
ENDTAB
  0
TABLE
  2
LTYPE
  5
5
330
0
100
AcDbSymbolTable
 70
    10
  0
LTYPE
  5
5B
330
5
100
AcDbSymbolTableRecord
100
AcDbLinetypeTableRecord
  2
ByBlock
 70
     0
  3

 72
    65
 73
     0
 40
0.0
  0
LTYPE
  5
5C
330
5
100
AcDbSymbolTableRecord
100
AcDbLinetypeTableRecord
  2
ByLayer
 70
     0
  3

 72
    65
 73
     0
 40
0.0
  0
LTYPE
  5
5D
330
5
100
AcDbSymbolTableRecord
100
AcDbLinetypeTableRecord
  2
Continuous
 70
     0
  3
Solid line
 72
    65
 73
     0
 40
0.0
  0
LTYPE
  5
8D
330
5
100
AcDbSymbolTableRecord
100
AcDbLinetypeTableRecord
  2
REGENWATER
 70
     0
  3
lijntype voor de leidingen van regenwater
 72
    65
 73
     6
 40
1.35
 49
0.6
 74
     0
 49
-0.25
 74
     0
 49
0.0
 74
     0
 49
-0.25
 74
     0
 49
0.0
 74
     0
 49
-0.25
 74
     0
  0
LTYPE
  5
8E
330
5
100
AcDbSymbolTableRecord
100
AcDbLinetypeTableRecord
  2
AFVALWATER
 70
     0
  3
lijntype voor de leidingen van het vuilwater
 72
    65
 73
     8
 40
1.85
 49
0.6
 74
     0
 49
-0.25
 74
     0
 49
0.0
 74
     0
 49
-0.25
 74
     0
 49
0.25
 74
     0
 49
-0.25
 74
     0
 49
0.0
 74
     0
 49
-0.25
 74
     0
  0
LTYPE
  5
8F
330
5
100
AcDbSymbolTableRecord
100
AcDbLinetypeTableRecord
  2
FECAALWATER
 70
     0
  3
lijntype voor de leidingen van het fecaalwater
 72
    65
 73
     8
 40
1.6
 49
0.6
 74
     0
 49
-0.25
 74
     0
 49
0.0
 74
     0
 49
-0.25
 74
     0
 49
0.0
 74
     0
 49
-0.25
 74
     0
 49
0.0
 74
     0
 49
-0.25
 74
     0
  0
LTYPE
  5
90
330
5
100
AcDbSymbolTableRecord
100
AcDbLinetypeTableRecord
  2
MCDASH05
 70
     0
  3

 72
    65
 73
     2
 40
0.1058074951171875
 49
0.0352691650390625
 74
     0
 49
-0.070538330078125
 74
     0
  0
LTYPE
  5
91
330
5
100
AcDbSymbolTableRecord
100
AcDbLinetypeTableRecord
  2
BATTING
 70
     0
  3
Batting SSSSSSSSSSSSSSSSSSSSSSSSSSSSSSSSSSSSSSS
 72
    65
 73
     4
 40
0.4001000000000001
 49
0.0001
 74
     0
 49
-0.1
 74
     4
 75
   134
340
88
 46
0.1
 50
0.0
 44
-0.1
 45
0.0
 49
-0.2
 74
     4
 75
   134
340
88
 46
0.1
 50
180.0
 44
0.1
 45
0.0
 49
-0.1
 74
     0
  0
LTYPE
  5
92
330
5
100
AcDbSymbolTableRecord
100
AcDbLinetypeTableRecord
  2
DASHDOT
 70
     0
  3
Dash dot __ . __ . __ . __ . __ . __ . __ . __
 72
    65
 73
     4
 40
25.4
 49
12.7
 74
     0
 49
-6.349999999999999
 74
     0
 49
0.0
 74
     0
 49
-6.349999999999999
 74
     0
  0
LTYPE
  5
93
330
5
100
AcDbSymbolTableRecord
100
AcDbLinetypeTableRecord
  2
HIDDEN
 70
     0
  3
Hidden __ __ __ __ __ __ __ __ __ __ __ __ __ _
 72
    65
 73
     2
 40
0.375
 49
0.25
 74
     0
 49
-0.125
 74
     0
  0
LTYPE
  5
94
330
5
100
AcDbSymbolTableRecord
100
AcDbLinetypeTableRecord
  2
DASHED2
 70
     0
  3
Dashed (.5x) _ _ _ _ _ _ _ _ _ _ _ _ _ _ _ _ _
 72
    65
 73
     2
 40
9.524999999999998
 49
6.349999999999999
 74
     0
 49
-3.174999999999999
 74
     0
  0
LTYPE
  5
95
330
5
100
AcDbSymbolTableRecord
100
AcDbLinetypeTableRecord
  2
CENTERLINE
 70
     0
  3
_ 
 72
    65
 73
     5
 40
30.0
 49
12.0
 74
     0
 49
-1.5
 74
     0
 49
3.0
 74
     0
 49
-1.5
 74
     0
 49
12.0
 74
     0
  0
ENDTAB
  0
TABLE
  2
LAYER
  5
2
102
{ACAD_XDICTIONARY
360
26C
102
}
330
0
100
AcDbSymbolTable
 70
    11
  0
LAYER
  5
54
102
{ACAD_XDICTIONARY
360
25E
102
}
330
2
100
AcDbSymbolTableRecord
100
AcDbLayerTableRecord
  2
0
 70
     0
 62
     7
  6
Continuous
370
    -3
390
F
1001
AcAecLayerStandard
1000

1000

  0
LAYER
  5
79
330
2
100
AcDbSymbolTableRecord
100
AcDbLayerTableRecord
  2
Defpoints
 70
     0
 62
     5
  6
Continuous
290
     0
370
    -3
390
F
1001
AcAecLayerStandard
1000

1000

  0
LAYER
  5
D1
102
{ACAD_XDICTIONARY
360
D2
102
}
330
2
100
AcDbSymbolTableRecord
100
AcDbLayerTableRecord
  2
A20-_Hatch
 70
     0
 62
     6
  6
Continuous
370
    -3
390
F
1001
AcAecLayerStandard
1000

1000

1001
AcCmTransparency
1071
        0
  0
LAYER
  5
DB
102
{ACAD_XDICTIONARY
360
260
102
}
330
2
100
AcDbSymbolTableRecord
100
AcDbLayerTableRecord
  2
A422_BinnenAfwerk
 70
     0
 62
     9
  6
Continuous
370
    -3
390
F
1001
AcAecLayerStandard
1000

1000

1001
AcCmTransparency
1071
        0
  0
LAYER
  5
DD
102
{ACAD_XDICTIONARY
360
DE
102
}
330
2
100
AcDbSymbolTableRecord
100
AcDbLayerTableRecord
  2
A22-_Binnenwand
 70
     0
 62
     4
  6
Continuous
370
    -3
390
F
  0
LAYER
  5
E1
102
{ACAD_XDICTIONARY
360
262
102
}
330
2
100
AcDbSymbolTableRecord
100
AcDbLayerTableRecord
  2
A412_BuitenAfwerk
 70
     0
 62
     9
  6
Continuous
370
    -3
390
F
1001
AcAecLayerStandard
1000

1000

1001
AcCmTransparency
1071
        0
  0
LAYER
  5
E4
102
{ACAD_XDICTIONARY
360
264
102
}
330
2
100
AcDbSymbolTableRecord
100
AcDbLayerTableRecord
  2
A413_BuitenAfwerk
 70
     0
 62
     1
  6
Continuous
370
    -3
390
F
1001
AcAecLayerStandard
1000

1000

1001
AcCmTransparency
1071
        0
  0
LAYER
  5
10B
102
{ACAD_XDICTIONARY
360
266
102
}
330
2
100
AcDbSymbolTableRecord
100
AcDbLayerTableRecord
  2
A32-_glas
 70
     0
 62
     7
  6
Continuous
370
    -3
390
F
1001
AcAecLayerStandard
1000

1000

1001
AcCmTransparency
1071
        0
  0
LAYER
  5
14C
102
{ACAD_XDICTIONARY
360
14D
102
}
330
2
100
AcDbSymbolTableRecord
100
AcDbLayerTableRecord
  2
RI-GASKET
 70
     0
 62
     7
  6
Continuous
370
    -3
390
F
  0
LAYER
  5
167
102
{ACAD_XDICTIONARY
360
168
102
}
330
2
100
AcDbSymbolTableRecord
100
AcDbLayerTableRecord
  2
A31-_Buitenschrijnwerk
 70
     0
 62
     1
  6
Continuous
370
    -3
390
F
  0
LAYER
  5
20C
102
{ACAD_XDICTIONARY
360
20D
102
}
330
2
100
AcDbSymbolTableRecord
100
AcDbLayerTableRecord
  2
A03-_TEXT
 70
     0
 62
     7
  6
Continuous
370
    -3
390
F
  0
ENDTAB
  0
TABLE
  2
STYLE
  5
3
330
0
100
AcDbSymbolTable
 70
    21
  0
STYLE
  5
55
330
3
100
AcDbSymbolTableRecord
100
AcDbTextStyleTableRecord
  2
Standard
 70
     0
 40
0.0
 41
1.0
 50
0.0
 71
     0
 42
0.2
  3
ARIALN.TTF
  4

1001
ACAD
1000
Arial Narrow
1071
       34
  0
STYLE
  5
5A
330
3
100
AcDbSymbolTableRecord
100
AcDbTextStyleTableRecord
  2
Annotative
 70
     0
 40
0.0
 41
1.0
 50
0.0
 71
     0
 42
0.2
  3
txt
  4

1001
AcadAnnotative
1000
AnnotativeData
1002
{
1070
     1
1070
     1
1002
}
  0
STYLE
  5
7A
330
3
100
AcDbSymbolTableRecord
100
AcDbTextStyleTableRecord
  2
DIM
 70
     0
 40
0.0
 41
1.0
 50
0.0
 71
     0
 42
14.0
  3
SIMPLEX.shx
  4

  0
STYLE
  5
7B
330
3
100
AcDbSymbolTableRecord
100
AcDbTextStyleTableRecord
  2
platte tekst
 70
     0
 40
18.0
 41
1.0
 50
0.0
 71
     0
 42
18.0
  3
Raleway-Medium.ttf
  4

1001
ACAD
1000
Raleway Medium
1071
 33554466
  0
STYLE
  5
7C
330
3
100
AcDbSymbolTableRecord
100
AcDbTextStyleTableRecord
  2
titel
 70
     0
 40
18.0
 41
1.0
 50
0.0
 71
     0
 42
2.5
  3

  4

1001
ACAD
1000
Grotesque Display MT BoldCond
1071
      256
  0
STYLE
  5
7D
330
3
100
AcDbSymbolTableRecord
100
AcDbTextStyleTableRecord
  2
subtitel
 70
     0
 40
18.0
 41
1.0
 50
0.0
 71
     0
 42
18.0
  3
Raleway-Medium.ttf
  4

1001
ACAD
1000
Raleway Medium
1071
 33554466
  0
STYLE
  5
7E
330
3
100
AcDbSymbolTableRecord
100
AcDbTextStyleTableRecord
  2
variabelen
 70
     0
 40
10.0
 41
1.0
 50
0.0
 71
     0
 42
10.0
  3
Raleway-Medium.ttf
  4

1001
ACAD
1000
Raleway Medium
1071
 33554466
  0
STYLE
  5
7F
330
3
100
AcDbSymbolTableRecord
100
AcDbTextStyleTableRecord
  2
4 Lezze 1-50
 70
     0
 40
10.0
 41
1.0
 50
0.0
 71
     0
 42
10.0
  3
arial.ttf
  4

1001
ACAD
1000
Arial
1071
       34
  0
STYLE
  5
80
330
3
100
AcDbSymbolTableRecord
100
AcDbTextStyleTableRecord
  2
5 Lezze 1-100
 70
     0
 40
20.0
 41
1.0
 50
0.0
 71
     0
 42
20.0
  3
arial.ttf
  4

1001
ACAD
1000
Arial
1071
       34
  0
STYLE
  5
81
330
3
100
AcDbSymbolTableRecord
100
AcDbTextStyleTableRecord
  2
6 Lezze 1-200
 70
     0
 40
40.0
 41
1.0
 50
0.0
 71
     0
 42
40.0
  3
arial.ttf
  4

1001
ACAD
1000
Arial
1071
       34
  0
STYLE
  5
82
330
3
100
AcDbSymbolTableRecord
100
AcDbTextStyleTableRecord
  2
7 Lezze 1-500
 70
     0
 40
100.0
 41
1.0
 50
0.0
 71
     0
 42
100.0
  3
arial.ttf
  4

1001
ACAD
1000
Arial
1071
       34
  0
STYLE
  5
83
330
3
100
AcDbSymbolTableRecord
100
AcDbTextStyleTableRecord
  2
1 Lezze 1-5
 70
     0
 40
1.0
 41
1.0
 50
0.0
 71
     0
 42
1.0
  3
arial.ttf
  4

1001
ACAD
1000
Arial
1071
       34
  0
STYLE
  5
84
330
3
100
AcDbSymbolTableRecord
100
AcDbTextStyleTableRecord
  2
2 Lezze 1-10
 70
     0
 40
2.0
 41
1.0
 50
0.0
 71
     0
 42
2.0
  3
arial.ttf
  4

1001
ACAD
1000
Arial
1071
       34
  0
STYLE
  5
85
330
3
100
AcDbSymbolTableRecord
100
AcDbTextStyleTableRecord
  2
3 Lezze 1-20
 70
     0
 40
4.0
 41
1.0
 50
0.0
 71
     0
 42
4.0
  3
arial.ttf
  4

1001
ACAD
1000
Arial
1071
       34
  0
STYLE
  5
86
330
3
100
AcDbSymbolTableRecord
100
AcDbTextStyleTableRecord
  2
0 Lezze 1-2
 70
     0
 40
0.4
 41
1.0
 50
0.0
 71
     0
 42
0.4
  3
arial.ttf
  4

1001
ACAD
1000
Arial
1071
       34
  0
STYLE
  5
87
330
3
100
AcDbSymbolTableRecord
100
AcDbTextStyleTableRecord
  2
0 Lezze 0 tekst papermodel
 70
     0
 40
5.0
 41
1.0
 50
0.0
 71
     0
 42
5.0
  3
arial.ttf
  4

1001
ACAD
1000
Arial
1071
       34
  0
STYLE
  5
88
330
3
100
AcDbSymbolTableRecord
100
AcDbTextStyleTableRecord
  2

 70
     1
 40
0.0
 41
1.0
 50
0.0
 71
     0
 42
14.0
  3
ltypeshp.shx
  4

  0
STYLE
  5
89
330
3
100
AcDbSymbolTableRecord
100
AcDbTextStyleTableRecord
  2
4 Lezze 1-50 Grotesq
 70
     0
 40
20.0
 41
1.0
 50
0.0
 71
     0
 42
20.0
  3
arialbd.ttf
  4

1001
ACAD
1000
Arial
1071
 33554466
  0
STYLE
  5
8A
330
3
100
AcDbSymbolTableRecord
100
AcDbTextStyleTableRecord
  2
arial
 70
     0
 40
0.0
 41
1.0
 50
0.0
 71
     0
 42
40.0
  3
ARIALN.TTF
  4

1001
ACAD
1000
Arial Narrow
1071
      256
  0
STYLE
  5
8B
330
3
100
AcDbSymbolTableRecord
100
AcDbTextStyleTableRecord
  2
8 Lezze ANNO
 70
     0
 40
0.3
 41
1.0
 50
0.0
 71
     0
 42
0.3
  3
arial.ttf
  4

1001
AcadAnnotative
1000
AnnotativeData
1002
{
1070
     1
1070
     1
1002
}
1001
ACAD
1000
Arial
1071
       34
  0
STYLE
  5
8C
330
3
100
AcDbSymbolTableRecord
100
AcDbTextStyleTableRecord
  2
8 Lezze ANNO Grotesq
 70
     0
 40
0.5
 41
1.0
 50
0.0
 71
     0
 42
4.0
  3
arial.ttf
  4

1001
AcadAnnotative
1000
AnnotativeData
1002
{
1070
     1
1070
     1
1002
}
1001
ACAD
1000
Arial
1071
       34
  0
ENDTAB
  0
TABLE
  2
VIEW
  5
6
330
0
100
AcDbSymbolTable
 70
     1
  0
ENDTAB
  0
TABLE
  2
UCS
  5
7
330
0
100
AcDbSymbolTable
 70
     0
  0
ENDTAB
  0
TABLE
  2
APPID
  5
9
330
0
100
AcDbSymbolTable
 70
    13
  0
APPID
  5
56
330
9
100
AcDbSymbolTableRecord
100
AcDbRegAppTableRecord
  2
ACAD
 70
     0
  0
APPID
  5
5E
330
9
100
AcDbSymbolTableRecord
100
AcDbRegAppTableRecord
  2
AcadAnnotative
 70
     0
  0
APPID
  5
78
330
9
100
AcDbSymbolTableRecord
100
AcDbRegAppTableRecord
  2
ACAD_PSEXT
 70
     0
  0
APPID
  5
A6
330
9
100
AcDbSymbolTableRecord
100
AcDbRegAppTableRecord
  2
ACAD_DSTYLE_DIMJAG
 70
     0
  0
APPID
  5
A7
330
9
100
AcDbSymbolTableRecord
100
AcDbRegAppTableRecord
  2
ACAD_DSTYLE_DIMBREAK
 70
     0
  0
APPID
  5
A8
330
9
100
AcDbSymbolTableRecord
100
AcDbRegAppTableRecord
  2
ACAD_DSTYLE_DIMTALN
 70
     0
  0
APPID
  5
D4
330
9
100
AcDbSymbolTableRecord
100
AcDbRegAppTableRecord
  2
AcAecLayerStandard
 70
     0
  0
APPID
  5
D5
330
9
100
AcDbSymbolTableRecord
100
AcDbRegAppTableRecord
  2
AcCmTransparency
 70
     0
  0
APPID
  5
D6
330
9
100
AcDbSymbolTableRecord
100
AcDbRegAppTableRecord
  2
GradientColor1ACI
 70
     0
  0
APPID
  5
D7
330
9
100
AcDbSymbolTableRecord
100
AcDbRegAppTableRecord
  2
GradientColor2ACI
 70
     0
  0
APPID
  5
1FD
330
9
100
AcDbSymbolTableRecord
100
AcDbRegAppTableRecord
  2
AcDbDynamicBlockGUID
 70
     0
  0
APPID
  5
27B
330
9
100
AcDbSymbolTableRecord
100
AcDbRegAppTableRecord
  2
ACAD_NAV_VCDISPLAY
 70
     0
  0
APPID
  5
31E
330
9
100
AcDbSymbolTableRecord
100
AcDbRegAppTableRecord
  2
ACAD_MLEADERVER
 70
     0
  0
ENDTAB
  0
TABLE
  2
DIMSTYLE
  5
A
330
0
100
AcDbSymbolTable
 70
    20
100
AcDbDimStyleTable
 71
     1
340
96
  0
DIMSTYLE
105
58
330
A
100
AcDbSymbolTableRecord
100
AcDbDimStyleTableRecord
  2
Standard
 70
     0
340
55
  0
DIMSTYLE
105
59
330
A
100
AcDbSymbolTableRecord
100
AcDbDimStyleTableRecord
  2
Annotative
 70
     0
340
55
1001
AcadAnnotative
1000
AnnotativeData
1002
{
1070
     1
1070
     1
1002
}
  0
DIMSTYLE
105
96
330
A
100
AcDbSymbolTableRecord
100
AcDbDimStyleTableRecord
  2
4 Lezze 1-50 DIMEXT
 70
     0
  4
m
 40
50.0
 41
0.15
 42
0.5
 43
0.5
 44
0.2
 73
     0
 74
     0
 75
     1
 76
     1
 77
     1
 78
     8
140
0.2
141
0.1
143
0.01
147
0.1
172
     1
173
     1
174
     1
179
     4
271
     0
272
     0
275
     1
276
     1
285
     8
289
     1
340
7A
343
98
344
9F
1001
AcadAnnotative
1000
AnnotativeData
1002
{
1070
     1
1070
     0
1002
}
1001
ACAD_DSTYLE_DIMJAG
1070
   388
1040
1.5
1001
ACAD_DSTYLE_DIMBREAK
1070
   391
1040
0.125
1001
ACAD_DSTYLE_DIMTALN
1070
   392
1070
     0
  0
DIMSTYLE
105
A9
330
A
100
AcDbSymbolTableRecord
100
AcDbDimStyleTableRecord
  2
4 Lezze 1-50 DIMINT
 70
     0
  4
m
 40
50.0
 41
0.15
 42
0.5
 43
0.5
 44
0.2
 73
     0
 74
     0
 75
     1
 76
     1
 77
     1
 78
     8
140
0.2
141
0.1
143
0.01
147
0.1
172
     1
173
     1
174
     1
271
     0
272
     0
275
     1
276
     1
285
     8
289
     1
340
7A
342
AA
343
AF
344
B4
  0
DIMSTYLE
105
B9
330
A
100
AcDbSymbolTableRecord
100
AcDbDimStyleTableRecord
  2
5 Lezze 1-100 DIMEXT
 70
     0
  4
m
 40
100.0
 41
0.15
 42
0.5
 43
0.5
 44
0.2
 73
     0
 74
     0
 75
     1
 76
     1
 77
     1
 78
     8
140
0.2
141
0.1
143
0.01
147
0.1
172
     1
173
     1
174
     1
179
     4
271
     0
272
     0
275
     1
276
     1
285
     8
289
     1
340
7A
343
98
344
9F
1001
ACAD_DSTYLE_DIMJAG
1070
   388
1040
1.5
1001
ACAD_DSTYLE_DIMBREAK
1070
   391
1040
0.125
1001
ACAD_DSTYLE_DIMTALN
1070
   392
1070
     0
  0
DIMSTYLE
105
BA
330
A
100
AcDbSymbolTableRecord
100
AcDbDimStyleTableRecord
  2
5 Lezze 1-100 DIMINT
 70
     0
  4
m
 40
100.0
 41
0.15
 42
0.5
 43
0.5
 44
0.2
 73
     0
 74
     0
 75
     1
 76
     1
 77
     1
 78
     8
140
0.2
141
0.1
143
0.01
147
0.1
172
     1
173
     1
174
     1
271
     0
272
     0
275
     1
276
     1
285
     8
289
     1
340
7A
343
AF
344
B4
1001
ACAD_DSTYLE_DIMJAG
1070
   388
1040
1.5
1001
ACAD_DSTYLE_DIMBREAK
1070
   391
1040
0.125
1001
ACAD_DSTYLE_DIMTALN
1070
   392
1070
     0
  0
DIMSTYLE
105
BB
330
A
100
AcDbSymbolTableRecord
100
AcDbDimStyleTableRecord
  2
6 Lezze 1-200 DIMINT
 70
     0
  4
m
 40
200.0
 41
0.15
 42
0.5
 43
0.5
 44
0.2
 73
     0
 74
     0
 75
     1
 76
     1
 77
     1
 78
     8
140
0.2
141
0.1
143
0.01
147
0.1
172
     1
173
     1
174
     1
271
     0
272
     0
275
     1
276
     1
285
     8
289
     1
340
7A
343
AF
344
B4
1001
ACAD_DSTYLE_DIMJAG
1070
   388
1040
1.5
1001
ACAD_DSTYLE_DIMBREAK
1070
   391
1040
0.125
1001
ACAD_DSTYLE_DIMTALN
1070
   392
1070
     0
  0
DIMSTYLE
105
BC
330
A
100
AcDbSymbolTableRecord
100
AcDbDimStyleTableRecord
  2
6 Lezze 1-200 DIMEXT
 70
     0
  4
m
 40
200.0
 41
0.15
 42
0.5
 43
0.5
 44
0.2
 73
     0
 74
     0
 75
     1
 76
     1
 77
     1
 78
     8
140
0.2
141
0.1
143
0.01
147
0.1
172
     1
173
     1
174
     1
179
     4
271
     0
272
     0
275
     1
276
     1
285
     8
289
     1
340
7A
343
98
344
9F
1001
ACAD_DSTYLE_DIMJAG
1070
   388
1040
1.5
1001
ACAD_DSTYLE_DIMBREAK
1070
   391
1040
0.125
1001
ACAD_DSTYLE_DIMTALN
1070
   392
1070
     0
  0
DIMSTYLE
105
BD
330
A
100
AcDbSymbolTableRecord
100
AcDbDimStyleTableRecord
  2
7 Lezze 1-500 DIMEXT
 70
     0
  4
m
 40
500.0
 41
0.15
 42
0.5
 43
0.5
 44
0.2
 73
     0
 74
     0
 75
     1
 76
     1
 77
     1
 78
     8
140
0.2
141
0.1
143
0.01
147
0.1
172
     1
173
     1
174
     1
179
     4
271
     0
272
     0
275
     1
276
     1
285
     8
289
     1
340
7A
343
98
344
9F
1001
ACAD_DSTYLE_DIMJAG
1070
   388
1040
1.5
1001
ACAD_DSTYLE_DIMBREAK
1070
   391
1040
0.125
1001
ACAD_DSTYLE_DIMTALN
1070
   392
1070
     0
  0
DIMSTYLE
105
BE
330
A
100
AcDbSymbolTableRecord
100
AcDbDimStyleTableRecord
  2
3 Lezze 1-20 DIMEXT
 70
     0
  4
m
 40
20.0
 41
0.15
 42
0.5
 43
0.5
 44
0.2
 73
     0
 74
     0
 75
     1
 76
     1
 77
     1
 78
     8
140
0.2
141
0.1
143
0.01
147
0.1
172
     1
173
     1
174
     1
179
     4
271
     0
272
     0
275
     1
276
     1
285
     8
289
     1
340
7A
343
98
344
9F
1001
ACAD_DSTYLE_DIMJAG
1070
   388
1040
1.5
1001
ACAD_DSTYLE_DIMBREAK
1070
   391
1040
0.125
1001
ACAD_DSTYLE_DIMTALN
1070
   392
1070
     0
  0
DIMSTYLE
105
BF
330
A
100
AcDbSymbolTableRecord
100
AcDbDimStyleTableRecord
  2
3 Lezze 1-20 DIMINT
 70
     0
  4
m
 40
20.0
 41
0.15
 42
0.5
 43
0.5
 44
0.2
 73
     0
 74
     0
 75
     1
 76
     1
 77
     1
 78
     8
140
0.2
141
0.1
143
0.01
147
0.1
172
     1
173
     1
174
     1
271
     1
272
     1
275
     1
276
     1
285
     8
289
     1
340
7A
343
AF
344
B4
1001
ACAD_DSTYLE_DIMJAG
1070
   388
1040
1.5
1001
ACAD_DSTYLE_DIMBREAK
1070
   391
1040
0.125
1001
ACAD_DSTYLE_DIMTALN
1070
   392
1070
     0
  0
DIMSTYLE
105
C0
330
A
100
AcDbSymbolTableRecord
100
AcDbDimStyleTableRecord
  2
2 Lezze 1-10 DIMINT
 70
     0
  4
m
 40
10.0
 41
0.15
 42
0.5
 43
0.5
 44
0.2
 73
     0
 74
     0
 75
     1
 76
     1
 77
     1
 78
     8
140
0.2
141
0.1
143
0.01
147
0.1
172
     1
173
     1
174
     1
271
     0
272
     0
275
     1
276
     1
285
     8
289
     1
340
7A
343
AF
344
B4
1001
ACAD_DSTYLE_DIMJAG
1070
   388
1040
1.5
1001
ACAD_DSTYLE_DIMBREAK
1070
   391
1040
0.125
1001
ACAD_DSTYLE_DIMTALN
1070
   392
1070
     0
  0
DIMSTYLE
105
C1
330
A
100
AcDbSymbolTableRecord
100
AcDbDimStyleTableRecord
  2
2 Lezze 1-10 DIMEXT
 70
     0
  4
m
 40
10.0
 41
0.15
 42
0.5
 43
0.5
 44
0.2
 73
     0
 74
     0
 75
     1
 76
     1
 77
     1
 78
     8
140
0.2
141
0.1
143
0.01
147
0.1
172
     1
173
     1
174
     1
179
     4
271
     0
272
     0
275
     1
276
     1
285
     8
289
     1
340
7A
343
98
344
9F
1001
ACAD_DSTYLE_DIMJAG
1070
   388
1040
1.5
1001
ACAD_DSTYLE_DIMBREAK
1070
   391
1040
0.125
1001
ACAD_DSTYLE_DIMTALN
1070
   392
1070
     0
  0
DIMSTYLE
105
C2
330
A
100
AcDbSymbolTableRecord
100
AcDbDimStyleTableRecord
  2
1 Lezze 1-5 DIMEXT
 70
     0
  4
m
 40
5.0
 41
0.15
 42
0.5
 43
0.5
 44
0.2
 73
     0
 74
     0
 75
     1
 76
     1
 77
     1
 78
     8
140
0.2
141
0.1
143
0.01
147
0.1
172
     1
173
     1
174
     1
179
     4
271
     0
272
     0
275
     1
276
     1
285
     8
289
     1
340
7A
343
98
344
9F
1001
ACAD_DSTYLE_DIMJAG
1070
   388
1040
1.5
1001
ACAD_DSTYLE_DIMBREAK
1070
   391
1040
0.125
1001
ACAD_DSTYLE_DIMTALN
1070
   392
1070
     0
  0
DIMSTYLE
105
C3
330
A
100
AcDbSymbolTableRecord
100
AcDbDimStyleTableRecord
  2
1 Lezze 1-5 DIMINT
 70
     0
  4
m
 40
5.0
 41
0.15
 42
0.5
 43
0.5
 44
0.2
 73
     0
 74
     0
 75
     1
 76
     1
 77
     1
 78
     8
140
0.2
141
0.1
143
0.01
147
0.1
172
     1
173
     1
174
     1
271
     0
272
     0
275
     1
276
     1
285
     8
289
     1
340
7A
343
AF
344
B4
1001
ACAD_DSTYLE_DIMJAG
1070
   388
1040
1.5
1001
ACAD_DSTYLE_DIMBREAK
1070
   391
1040
0.125
1001
ACAD_DSTYLE_DIMTALN
1070
   392
1070
     0
  0
DIMSTYLE
105
C4
330
A
100
AcDbSymbolTableRecord
100
AcDbDimStyleTableRecord
  2
0 Lezze 1-2 DIMINT
 70
     0
  4
m
 40
2.0
 41
0.15
 42
0.5
 43
0.5
 44
0.2
 73
     0
 74
     0
 75
     1
 76
     1
 77
     1
 78
     8
140
0.2
141
0.1
143
0.01
147
0.1
172
     1
173
     1
174
     1
271
     0
272
     0
275
     1
276
     1
285
     8
289
     1
340
7A
343
AF
344
B4
1001
ACAD_DSTYLE_DIMJAG
1070
   388
1040
1.5
1001
ACAD_DSTYLE_DIMBREAK
1070
   391
1040
0.125
1001
ACAD_DSTYLE_DIMTALN
1070
   392
1070
     0
  0
DIMSTYLE
105
C5
330
A
100
AcDbSymbolTableRecord
100
AcDbDimStyleTableRecord
  2
0 Lezze 1-2 DIMEXT
 70
     0
  4
m
 40
2.0
 41
0.15
 42
0.5
 43
0.5
 44
0.2
 73
     0
 74
     0
 75
     1
 76
     1
 77
     1
 78
     8
140
0.2
141
0.1
143
0.01
147
0.1
172
     1
173
     1
174
     1
179
     4
271
     0
272
     0
275
     1
276
     1
285
     8
289
     1
340
7A
343
98
344
9F
1001
ACAD_DSTYLE_DIMJAG
1070
   388
1040
1.5
1001
ACAD_DSTYLE_DIMBREAK
1070
   391
1040
0.125
1001
ACAD_DSTYLE_DIMTALN
1070
   392
1070
     0
  0
DIMSTYLE
105
C6
330
A
100
AcDbSymbolTableRecord
100
AcDbDimStyleTableRecord
  2
7 Lezze 1-500 DIMINT
 70
     0
  4
m
 40
500.0
 41
0.15
 42
0.5
 43
0.5
 44
0.2
 73
     0
 74
     0
 75
     1
 76
     1
 77
     1
 78
     8
140
0.2
141
0.1
143
0.01
147
0.1
172
     1
173
     1
174
     1
271
     0
272
     0
275
     1
276
     1
285
     8
289
     1
340
7A
343
AF
344
B4
1001
ACAD_DSTYLE_DIMJAG
1070
   388
1040
1.5
1001
ACAD_DSTYLE_DIMBREAK
1070
   391
1040
0.125
1001
ACAD_DSTYLE_DIMTALN
1070
   392
1070
     0
  0
DIMSTYLE
105
C7
330
A
100
AcDbSymbolTableRecord
100
AcDbDimStyleTableRecord
  2
8 Lezze anno DIMEXT
 70
     0
  4
m
 40
500.0
 41
0.15
 42
0.5
 43
0.5
 44
0.2
 73
     0
 74
     0
 75
     1
 76
     1
 77
     1
 78
     8
140
0.2
141
0.1
143
0.01
147
0.1
172
     1
173
     1
174
     1
179
     4
271
     0
272
     0
275
     1
276
     1
285
     8
289
     1
340
7A
343
98
344
9F
1001
AcadAnnotative
1000
AnnotativeData
1002
{
1070
     1
1070
     1
1002
}
1001
ACAD_DSTYLE_DIMJAG
1070
   388
1040
1.5
1001
ACAD_DSTYLE_DIMBREAK
1070
   391
1040
0.125
1001
ACAD_DSTYLE_DIMTALN
1070
   392
1070
     0
  0
DIMSTYLE
105
C8
330
A
100
AcDbSymbolTableRecord
100
AcDbDimStyleTableRecord
  2
8 Lezze anno DIMINT
 70
     0
  4
m
 40
500.0
 41
0.15
 42
0.5
 43
0.5
 44
0.2
 73
     0
 74
     0
 75
     1
 76
     1
 77
     1
 78
     8
140
0.2
141
0.1
143
0.01
147
0.1
172
     1
173
     1
174
     1
271
     0
272
     0
275
     1
276
     1
285
     8
289
     1
340
7A
343
AF
344
B4
1001
AcadAnnotative
1000
AnnotativeData
1002
{
1070
     1
1070
     1
1002
}
1001
ACAD_DSTYLE_DIMJAG
1070
   388
1040
1.5
1001
ACAD_DSTYLE_DIMBREAK
1070
   391
1040
0.125
1001
ACAD_DSTYLE_DIMTALN
1070
   392
1070
     0
  0
ENDTAB
  0
TABLE
  2
BLOCK_RECORD
  5
1
330
0
100
AcDbSymbolTable
 70
     8
  0
BLOCK_RECORD
  5
70
102
{ACAD_XDICTIONARY
360
222
102
}
330
1
100
AcDbSymbolTableRecord
100
AcDbBlockTableRecord
  2
*Model_Space
340
73
  0
BLOCK_RECORD
  5
6C
330
1
100
AcDbSymbolTableRecord
100
AcDbBlockTableRecord
  2
*Paper_Space
340
6F
  0
BLOCK_RECORD
  5
74
330
1
100
AcDbSymbolTableRecord
100
AcDbBlockTableRecord
  2
*Paper_Space0
340
77
  0
BLOCK_RECORD
  5
98
330
1
100
AcDbSymbolTableRecord
100
AcDbBlockTableRecord
  2
DIML
340
0
  0
BLOCK_RECORD
  5
9F
330
1
100
AcDbSymbolTableRecord
100
AcDbBlockTableRecord
  2
DIMR
340
0
  0
BLOCK_RECORD
  5
AA
330
1
100
AcDbSymbolTableRecord
100
AcDbBlockTableRecord
  2
_Dot
340
0
  0
BLOCK_RECORD
  5
AF
330
1
100
AcDbSymbolTableRecord
100
AcDbBlockTableRecord
  2
DIML2
340
0
  0
BLOCK_RECORD
  5
B4
330
1
100
AcDbSymbolTableRecord
100
AcDbBlockTableRecord
  2
DIMR2
340
0
  0
BLOCK_RECORD
  5
162
102
{ACAD_XDICTIONARY
360
163
102
}
330
1
100
AcDbSymbolTableRecord
100
AcDbBlockTableRecord
  2
0606052
340
0
102
{BLKREFS
331
161
102
}
1001
AcDbDynamicBlockGUID
1000
{9BD7F882-8976-47D2-BB8D-172EA8101749}
1001
ACAD
1000
DesignCenter Data
1002
{
1070
     1
1070
     4
1002
}
  0
BLOCK_RECORD
  5
22A
102
{ACAD_XDICTIONARY
360
22B
102
}
330
1
100
AcDbSymbolTableRecord
100
AcDbBlockTableRecord
  2
Vignet A4
340
0
102
{BLKREFS
331
229
102
}
1001
AcDbDynamicBlockGUID
1000
{A7BF48B1-A793-4956-9177-3FC48E84AAAA}
  0
ENDTAB
  0
ENDSEC
  0
SECTION
  2
BLOCKS
  0
BLOCK
  5
71
330
70
100
AcDbEntity
  8
0
100
AcDbBlockBegin
  2
*Model_Space
 70
     0
 10
0.0
 20
0.0
 30
0.0
  3
*Model_Space
  1

  0
ENDBLK
  5
72
330
70
100
AcDbEntity
  8
0
100
AcDbBlockEnd
  0
BLOCK
  5
6D
330
6C
100
AcDbEntity
 67
     1
  8
0
100
AcDbBlockBegin
  2
*Paper_Space
 70
     0
 10
0.0
 20
0.0
 30
0.0
  3
*Paper_Space
  1

  0
ENDBLK
  5
6E
330
6C
100
AcDbEntity
 67
     1
  8
0
100
AcDbBlockEnd
  0
BLOCK
  5
75
330
74
100
AcDbEntity
 67
     1
  8
0
100
AcDbBlockBegin
  2
*Paper_Space0
 70
     0
 10
0.0
 20
0.0
 30
0.0
  3
*Paper_Space0
  1

  0
ENDBLK
  5
76
330
74
100
AcDbEntity
 67
     1
  8
0
100
AcDbBlockEnd
  0
BLOCK
  5
99
330
98
100
AcDbEntity
  8
0
100
AcDbBlockBegin
  2
DIML
 70
     0
 10
0.0
 20
0.0
 30
0.0
  3
DIML
  1

  0
LINE
  5
9A
330
98
100
AcDbEntity
  8
0
 62
     0
100
AcDbLine
 10
0.0
 20
0.450000000662385
 30
0.0
 11
0.0
 21
2.0
 31
0.0
  0
CIRCLE
  5
9B
330
98
100
AcDbEntity
  8
0
 62
     0
100
AcDbCircle
 10
0.0
 20
0.0
 30
0.0
 40
0.45
  0
LINE
  5
9C
330
98
100
AcDbEntity
  8
0
 62
     0
100
AcDbLine
 10
0.0
 20
-1.0
 30
0.0
 11
0.0
 21
-0.450000000662385
 31
0.0
  0
LINE
  5
9D
330
98
100
AcDbEntity
  8
0
 62
     0
100
AcDbLine
 10
-0.4500000000000455
 20
0.0
 30
0.0
 11
-1.0
 21
0.0
 31
0.0
  0
ENDBLK
  5
9E
330
98
100
AcDbEntity
  8
0
100
AcDbBlockEnd
  0
BLOCK
  5
A0
330
9F
100
AcDbEntity
  8
0
100
AcDbBlockBegin
  2
DIMR
 70
     0
 10
0.0
 20
0.0
 30
0.0
  3
DIMR
  1

  0
LINE
  5
A1
330
9F
100
AcDbEntity
  8
0
 62
     0
100
AcDbLine
 10
-0.4500000000000002
 20
0.0000000000000001
 30
0.0
 11
-1.0
 21
0.0000000000000001
 31
0.0
  0
LINE
  5
A2
330
9F
100
AcDbEntity
  8
0
 62
     0
100
AcDbLine
 10
0.0
 20
1.0
 30
0.0
 11
0.0
 21
0.450000000662385
 31
0.0
  0
CIRCLE
  5
A3
330
9F
100
AcDbEntity
  8
0
 62
     0
100
AcDbCircle
 10
0.0
 20
0.0
 30
0.0
 40
0.45
  0
LINE
  5
A4
330
9F
100
AcDbEntity
  8
0
 62
     0
100
AcDbLine
 10
0.0
 20
-0.450000000662385
 30
0.0
 11
0.0
 21
-2.0
 31
0.0
  0
ENDBLK
  5
A5
330
9F
100
AcDbEntity
  8
0
100
AcDbBlockEnd
  0
BLOCK
  5
AB
330
AA
100
AcDbEntity
  8
0
100
AcDbBlockBegin
  2
_Dot
 70
     0
 10
0.0
 20
0.0
 30
0.0
  3
_Dot
  1

  0
LWPOLYLINE
  5
AC
330
AA
100
AcDbEntity
  8
0
  6
ByBlock
 62
     0
100
AcDbPolyline
 90
        2
 70
     1
 43
0.5
 10
-0.25
 20
0.0
 42
1.0
 10
0.25
 20
0.0
 42
1.0
  0
LINE
  5
AD
330
AA
100
AcDbEntity
  8
0
  6
ByBlock
 62
     0
370
    -2
100
AcDbLine
 10
-0.5
 20
0.0
 30
0.0
 11
-1.0
 21
0.0
 31
0.0
  0
ENDBLK
  5
AE
330
AA
100
AcDbEntity
  8
0
100
AcDbBlockEnd
  0
BLOCK
  5
B0
330
AF
100
AcDbEntity
  8
0
100
AcDbBlockBegin
  2
DIML2
 70
     0
 10
0.0
 20
0.0
 30
0.0
  3
DIML2
  1

  0
CIRCLE
  5
B1
330
AF
100
AcDbEntity
  8
0
 62
     0
100
AcDbCircle
 10
0.0
 20
0.0
 30
0.0
 40
0.45
  0
LINE
  5
B2
330
AF
100
AcDbEntity
  8
0
 62
     0
100
AcDbLine
 10
-0.4500000000000455
 20
0.0
 30
0.0
 11
-1.0
 21
0.0
 31
0.0
  0
ENDBLK
  5
B3
330
AF
100
AcDbEntity
  8
0
100
AcDbBlockEnd
  0
BLOCK
  5
B5
330
B4
100
AcDbEntity
  8
0
100
AcDbBlockBegin
  2
DIMR2
 70
     0
 10
0.0
 20
0.0
 30
0.0
  3
DIMR2
  1

  0
LINE
  5
B6
330
B4
100
AcDbEntity
  8
0
 62
     0
100
AcDbLine
 10
-0.4500000000002729
 20
0.0
 30
0.0
 11
-1.000000000000227
 21
0.0
 31
0.0
  0
CIRCLE
  5
B7
330
B4
100
AcDbEntity
  8
0
 62
     0
100
AcDbCircle
 10
0.0
 20
0.0
 30
0.0
 40
0.45
  0
ENDBLK
  5
B8
330
B4
100
AcDbEntity
  8
0
100
AcDbBlockEnd
  0
BLOCK
  5
165
330
162
100
AcDbEntity
  8
0
100
AcDbBlockBegin
  2
0606052
 70
     0
 10
0.0
 20
0.0
 30
0.0
  3
0606052
  1

  0
ARC
  5
166
330
162
100
AcDbEntity
  8
A31-_Buitenschrijnwerk
  6
Continuous
 62
     0
100
AcDbCircle
 10
-16.87728071164088
 20
10.37429673295807
 30
0.0
 40
6.782841333333327
100
AcDbArc
 50
90.0
 51
180.0
  0
ARC
  5
16A
330
162
100
AcDbEntity
  8
A31-_Buitenschrijnwerk
  6
Continuous
 62
     0
100
AcDbCircle
 10
-16.47829004497413
 20
9.975306066291437
 30
0.0
 40
6.68309366666666
100
AcDbArc
 50
0.0
 51
180.0
  0
ARC
  5
16B
330
162
100
AcDbEntity
  8
A31-_Buitenschrijnwerk
  6
Continuous
 62
     0
100
AcDbCircle
 10
-16.47829004497413
 20
9.987774524624732
 30
0.0
 40
5.186878666666662
100
AcDbArc
 50
0.0
 51
180.0
  0
ARC
  5
16C
330
162
100
AcDbEntity
  8
A31-_Buitenschrijnwerk
  6
Continuous
 62
     0
100
AcDbCircle
 10
-16.07929937830739
 20
10.37429673295807
 30
0.0
 40
6.782841333333327
100
AcDbArc
 50
0.0
 51
90.0
  0
LINE
  5
16D
330
162
100
AcDbEntity
  8
A31-_Buitenschrijnwerk
  6
Continuous
 62
     0
100
AcDbLine
 10
-16.87728071164088
 20
17.15713806629143
 30
0.0
 11
-16.07929937830739
 21
17.15713806629143
 31
0.0
  0
LINE
  5
16E
330
162
100
AcDbEntity
  8
A31-_Buitenschrijnwerk
  6
CENTERLINE
 62
     0
100
AcDbLine
 10
7.197799490414715
 20
-5.823590535230771
 30
0.0
 11
0.7694281151924736
 21
-6.957086445086355
 31
0.0
  0
LINE
  5
16F
330
162
100
AcDbEntity
  8
A31-_Buitenschrijnwerk
  6
Continuous
 62
     0
100
AcDbLine
 10
7.361402288359243
 20
-12.66741426704188
 30
0.0
 11
5.166953621692488
 21
-12.42358608325855
 31
0.0
  0
LINE
  5
170
330
162
100
AcDbEntity
  8
A31-_Buitenschrijnwerk
  6
Continuous
 62
     0
100
AcDbLine
 10
7.361402288359244
 20
-7.680030933708582
 30
0.0
 11
5.166953621692488
 21
-7.92385745503078
 31
0.0
  0
ARC
  5
171
330
162
100
AcDbEntity
  8
A31-_Buitenschrijnwerk
  6
Continuous
 62
     0
100
AcDbCircle
 10
1.177046955025826
 20
-16.75706860037523
 30
0.0
 40
3.989906666666663
100
AcDbArc
 50
270.0
 51
0.0
  0
ARC
  5
172
330
162
100
AcDbEntity
  8
A31-_Buitenschrijnwerk
  6
Continuous
 62
     0
100
AcDbCircle
 10
4.967458288359228
 20
-2.892142933708546
 30
0.0
 40
2.992429999999997
100
AcDbArc
 50
53.13010000000048
 51
90.0
  0
LINE
  5
173
330
162
100
AcDbEntity
  8
A31-_Buitenschrijnwerk
  6
Continuous
 62
     0
100
AcDbLine
 10
11.15181362169253
 20
3.491707732958072
 30
0.0
 11
1.576037621692573
 21
3.491707732958072
 31
0.0
  0
ARC
  5
174
330
162
100
AcDbEntity
  8
A31-_Buitenschrijnwerk
  6
Continuous
 62
     0
100
AcDbCircle
 10
0.1795702883591943
 20
-1.296180267041908
 30
0.0
 40
4.987383333333328
100
AcDbArc
 50
0.0
 51
90.0
  0
LINE
  5
175
330
162
100
AcDbEntity
  8
A31-_Buitenschrijnwerk
  6
Continuous
 62
     0
100
AcDbLine
 10
7.361402288359244
 20
-4.887096267041933
 30
0.0
 11
7.361402288359243
 21
-15.46034893370853
 31
0.0
  0
LINE
  5
176
330
162
100
AcDbEntity
  8
A31-_Buitenschrijnwerk
  6
HIDDEN
 62
     0
100
AcDbLine
 10
9.755346288359151
 20
-8.02914776704193
 30
0.0
 11
9.755346288359151
 21
-12.31829743370859
 31
0.0
  0
LINE
  5
177
330
162
100
AcDbEntity
  8
A31-_Buitenschrijnwerk
  6
HIDDEN
 62
     0
100
AcDbLine
 10
10.35383228835915
 20
-3.88961960037524
 30
0.0
 11
10.35383228835915
 21
-16.45782560037517
 31
0.0
  0
LINE
  5
178
330
162
100
AcDbEntity
  8
A31-_Buitenschrijnwerk
  6
Continuous
 62
     0
100
AcDbLine
 10
15.34121562169245
 20
-15.6598442670419
 30
0.0
 11
15.34121562169245
 21
-4.687600933708562
 31
0.0
  0
LINE
  5
179
330
162
100
AcDbEntity
  8
A31-_Buitenschrijnwerk
  6
Continuous
 62
     0
100
AcDbLine
 10
16.33869228835919
 20
-19.94899393370851
 30
0.0
 11
16.3386922883592
 21
-0.3984512670419029
 31
0.0
  0
ARC
  5
17A
330
162
100
AcDbEntity
  8
A31-_Buitenschrijnwerk
  6
Continuous
 62
     0
100
AcDbCircle
 10
11.15181362169253
 20
2.494231066291433
 30
0.0
 40
0.9974766666666658
100
AcDbArc
 50
0.0
 51
90.0
  0
LINE
  5
17B
330
162
100
AcDbEntity
  8
A31-_Buitenschrijnwerk
  6
Continuous
 62
     0
100
AcDbLine
 10
6.809531697914783
 20
-0.53538985122524
 30
0.0
 11
10.83662761963697
 21
3.491707732958072
 31
0.0
  0
LINE
  5
17C
330
162
100
AcDbEntity
  8
A31-_Buitenschrijnwerk
  6
Continuous
 62
     0
100
AcDbLine
 10
15.83995395502588
 20
-4.188862600375244
 30
0.0
 11
16.3386922883592
 21
-4.188862600375244
 31
0.0
  0
LINE
  5
17D
330
162
100
AcDbEntity
  8
A31-_Buitenschrijnwerk
  6
Continuous
 62
     0
100
AcDbLine
 10
16.3386922883592
 20
-0.3984512670419029
 30
0.0
 11
13.64550528835924
 21
-0.3984512670419029
 31
0.0
  0
LINE
  5
17E
330
162
100
AcDbEntity
  8
A31-_Buitenschrijnwerk
  6
Continuous
 62
     0
100
AcDbLine
 10
7.161906955025873
 20
-1.296180267041908
 30
0.0
 11
7.161906955025872
 21
-7.702196527702998
 31
0.0
  0
LINE
  5
17F
330
162
100
AcDbEntity
  8
A31-_Buitenschrijnwerk
  6
HIDDEN
 62
     0
100
AcDbLine
 10
10.35383228835915
 20
-8.02914776704193
 30
0.0
 11
9.755346288359151
 21
-8.02914776704193
 31
0.0
  0
LINE
  5
180
330
162
100
AcDbEntity
  8
A31-_Buitenschrijnwerk
  6
HIDDEN
 62
     0
100
AcDbLine
 10
7.161906955025872
 20
-5.435708433708594
 30
0.0
 11
9.755346288359151
 21
-8.02914776704193
 31
0.0
  0
ARC
  5
181
330
162
100
AcDbEntity
  8
A31-_Buitenschrijnwerk
  6
Continuous
 62
     0
100
AcDbCircle
 10
9.356355621692518
 20
-4.887096267041933
 30
0.0
 40
1.994953333333331
100
AcDbArc
 50
90.0
 51
180.0
  0
LINE
  5
182
330
162
100
AcDbEntity
  8
A31-_Buitenschrijnwerk
  6
Continuous
 62
     0
100
AcDbLine
 10
13.34626228835918
 20
-2.892142933708548
 30
0.0
 11
13.34626228835918
 21
-3.88961960037524
 31
0.0
  0
ARC
  5
183
330
162
100
AcDbEntity
  8
A31-_Buitenschrijnwerk
  6
Continuous
 62
     0
100
AcDbCircle
 10
15.83995395502588
 20
-4.687600933708562
 30
0.0
 40
0.498738333333333
100
AcDbArc
 50
90.0
 51
180.0
  0
LINE
  5
184
330
162
100
AcDbEntity
  8
A31-_Buitenschrijnwerk
  6
Continuous
 62
     0
100
AcDbLine
 10
12.14929028835917
 20
-2.892142933708548
 30
0.0
 11
13.34626228835918
 21
-2.892142933708548
 31
0.0
  0
LINE
  5
185
330
162
100
AcDbEntity
  8
A31-_Buitenschrijnwerk
  6
HIDDEN
 62
     0
100
AcDbLine
 10
13.34626228835918
 20
-3.88961960037524
 30
0.0
 11
10.35383228835915
 21
-3.88961960037524
 31
0.0
  0
LINE
  5
186
330
162
100
AcDbEntity
  8
A31-_Buitenschrijnwerk
  6
Continuous
 62
     0
100
AcDbLine
 10
9.35635562169252
 20
-2.892142933708548
 30
0.0
 11
13.64550528835924
 21
-2.892142933708548
 31
0.0
  0
ARC
  5
187
330
162
100
AcDbEntity
  8
A31-_Buitenschrijnwerk
  6
Continuous
 62
     0
100
AcDbCircle
 10
6.164430288359238
 20
-1.296180267041908
 30
0.0
 40
0.9974766666666658
100
AcDbArc
 50
0.0
 51
53.13010000000048
  0
LINE
  5
188
330
162
100
AcDbEntity
  8
A31-_Buitenschrijnwerk
  6
Continuous
 62
     0
100
AcDbLine
 10
12.14929028835917
 20
-2.892142933708548
 30
0.0
 11
12.14929028835917
 21
2.494231066291433
 31
0.0
  0
LINE
  5
189
330
162
100
AcDbEntity
  8
A31-_Buitenschrijnwerk
  6
Continuous
 62
     0
100
AcDbLine
 10
13.64550528835923
 20
-4.887096267041934
 30
0.0
 11
13.64550528835924
 21
-0.3984512670419029
 31
0.0
  0
ARC
  5
18A
330
162
100
AcDbEntity
  8
A31-_Buitenschrijnwerk
  6
Continuous
 62
     0
100
AcDbCircle
 10
10.15433695502578
 20
-18.25328360037518
 30
0.0
 40
2.992429999999997
100
AcDbArc
 50
180.0
 51
270.0
  0
LINE
  5
18B
330
162
100
AcDbEntity
  8
A31-_Buitenschrijnwerk
  6
Continuous
 62
     0
100
AcDbLine
 10
12.14929028835917
 20
-21.24571360037521
 30
0.0
 11
12.14929028835917
 21
-17.45530226704192
 31
0.0
  0
LINE
  5
18C
330
162
100
AcDbEntity
  8
A31-_Buitenschrijnwerk
  6
Continuous
 62
     0
100
AcDbLine
 10
13.64550528835923
 20
-19.94899393370851
 30
0.0
 11
13.64550528835923
 21
-15.46034893370853
 31
0.0
  0
LINE
  5
18D
330
162
100
AcDbEntity
  8
A31-_Buitenschrijnwerk
  6
Continuous
 62
     0
100
AcDbLine
 10
15.83995395502588
 20
-16.15858260037522
 30
0.0
 11
16.3386922883592
 21
-16.15858260037522
 31
0.0
  0
ARC
  5
18E
330
162
100
AcDbEntity
  8
A31-_Buitenschrijnwerk
  6
Continuous
 62
     0
100
AcDbCircle
 10
19.78163262485916
 20
-10.17372260037523
 30
0.0
 40
3.49116833333333
100
AcDbArc
 50
170.4649800000048
 51
189.5350199999952
  0
LINE
  5
18F
330
162
100
AcDbEntity
  8
A31-_Buitenschrijnwerk
  6
CENTERLINE
 62
     0
100
AcDbLine
 10
11.25156128835921
 20
-10.17372260037523
 30
0.0
 11
6.26417795502581
 21
-10.17372260037523
 31
0.0
  0
LINE
  5
190
330
162
100
AcDbEntity
  8
A31-_Buitenschrijnwerk
  6
HIDDEN
 62
     0
100
AcDbLine
 10
10.35383228835915
 20
-12.31829743370859
 30
0.0
 11
9.755346288359151
 21
-12.31829743370859
 31
0.0
  0
LINE
  5
191
330
162
100
AcDbEntity
  8
A31-_Buitenschrijnwerk
  6
HIDDEN
 62
     0
100
AcDbLine
 10
7.161906955025871
 20
-14.91173676704192
 30
0.0
 11
9.755346288359151
 21
-12.31829743370859
 31
0.0
  0
LINE
  5
192
330
162
100
AcDbEntity
  8
A31-_Buitenschrijnwerk
  6
Continuous
 62
     0
100
AcDbLine
 10
7.161906955025871
 20
-12.64524701058634
 30
0.0
 11
7.16190695502587
 21
-18.25328360037518
 31
0.0
  0
ARC
  5
193
330
162
100
AcDbEntity
  8
A31-_Buitenschrijnwerk
  6
Continuous
 62
     0
100
AcDbCircle
 10
9.356355621692518
 20
-15.46034893370853
 30
0.0
 40
1.994953333333331
100
AcDbArc
 50
180.0
 51
270.0
  0
LINE
  5
194
330
162
100
AcDbEntity
  8
A31-_Buitenschrijnwerk
  6
Continuous
 62
     0
100
AcDbLine
 10
13.34626228835918
 20
-17.45530226704192
 30
0.0
 11
13.34626228835918
 21
-16.45782560037517
 31
0.0
  0
ARC
  5
195
330
162
100
AcDbEntity
  8
A31-_Buitenschrijnwerk
  6
Continuous
 62
     0
100
AcDbCircle
 10
15.83995395502588
 20
-15.6598442670419
 30
0.0
 40
0.498738333333333
100
AcDbArc
 50
180.0
 51
270.0
  0
LINE
  5
196
330
162
100
AcDbEntity
  8
A31-_Buitenschrijnwerk
  6
HIDDEN
 62
     0
100
AcDbLine
 10
12.14929028835917
 20
-17.45530226704192
 30
0.0
 11
13.34626228835918
 21
-17.45530226704192
 31
0.0
  0
LINE
  5
197
330
162
100
AcDbEntity
  8
A31-_Buitenschrijnwerk
  6
HIDDEN
 62
     0
100
AcDbLine
 10
13.34626228835918
 20
-16.45782560037517
 30
0.0
 11
10.35383228835915
 21
-16.45782560037517
 31
0.0
  0
LINE
  5
198
330
162
100
AcDbEntity
  8
A31-_Buitenschrijnwerk
  6
Continuous
 62
     0
100
AcDbLine
 10
9.356355621692518
 20
-17.45530226704191
 30
0.0
 11
13.64550528835923
 21
-17.45530226704192
 31
0.0
  0
LINE
  5
199
330
162
100
AcDbEntity
  8
A31-_Buitenschrijnwerk
  6
Continuous
 62
     0
100
AcDbLine
 10
13.64550528835923
 20
-19.94899393370851
 30
0.0
 11
16.33869228835919
 21
-19.94899393370851
 31
0.0
  0
LINE
  5
19A
330
162
100
AcDbEntity
  8
A31-_Buitenschrijnwerk
  6
Continuous
 62
     0
100
AcDbLine
 10
12.14929028835917
 20
-21.24571360037521
 30
0.0
 11
10.15433695502578
 21
-21.24571360037521
 31
0.0
  0
LINE
  5
19B
330
162
100
AcDbEntity
  8
A31-_Buitenschrijnwerk
  6
Continuous
 62
     0
100
AcDbLine
 10
-3.593185707974227
 20
-12.49227565144745
 30
0.0
 11
-4.591227611418604
 21
-5.390785409564131
 31
0.0
  0
ARC
  5
19C
330
162
100
AcDbEntity
  8
A31-_Buitenschrijnwerk
  6
Continuous
 62
     0
100
AcDbCircle
 10
1.327882051636994
 20
-8.787188472180774
 30
0.0
 40
1.296719666666665
100
AcDbArc
 50
152.9999999999982
 51
200.0000000000037
  0
LINE
  5
19D
330
162
100
AcDbEntity
  8
A31-_Buitenschrijnwerk
  6
HIDDEN
 62
     0
100
AcDbLine
 10
-0.9213779578630935
 20
-6.398752205841917
 30
0.0
 11
0.1197715621924966
 21
-9.259284203747474
 31
0.0
  0
LINE
  5
19E
330
162
100
AcDbEntity
  8
A31-_Buitenschrijnwerk
  6
Continuous
 62
     0
100
AcDbLine
 10
0.626240339692499
 20
-7.202587064747477
 30
0.0
 11
1.178376923914798
 21
-11.95991404214187
 31
0.0
  0
LINE
  5
19F
330
162
100
AcDbEntity
  8
A31-_Buitenschrijnwerk
  6
Continuous
 62
     0
100
AcDbLine
 10
5.166953621692489
 20
-1.296180267041908
 30
0.0
 11
5.166953621692487
 21
-16.75706860037523
 31
0.0
  0
LINE
  5
1A0
330
162
100
AcDbEntity
  8
A31-_Buitenschrijnwerk
  6
HIDDEN
 62
     0
100
AcDbLine
 10
5.166953621692488
 20
-11.09650322685853
 30
0.0
 11
3.434852014636927
 21
-1.273276540314103
 31
0.0
  0
LINE
  5
1A1
330
162
100
AcDbEntity
  8
A31-_Buitenschrijnwerk
  6
HIDDEN
 62
     0
100
AcDbLine
 10
1.608871228636937
 20
-4.703715169258536
 30
0.0
 11
2.393685869970304
 21
-9.154633939264099
 31
0.0
  0
LINE
  5
1A2
330
162
100
AcDbEntity
  8
A31-_Buitenschrijnwerk
  6
Continuous
 62
     0
100
AcDbLine
 10
-20.66769204497417
 20
0.3995300662914225
 30
0.0
 11
-12.2888880449741
 21
0.3995300662914225
 31
0.0
  0
LINE
  5
1A3
330
162
100
AcDbEntity
  8
A31-_Buitenschrijnwerk
  6
Continuous
 62
     0
100
AcDbLine
 10
-20.66769204497417
 20
1.895745066291432
 30
0.0
 11
-12.2888880449741
 21
1.895745066291432
 31
0.0
  0
LINE
  5
1A4
330
162
100
AcDbEntity
  8
A31-_Buitenschrijnwerk
  6
Continuous
 62
     0
100
AcDbLine
 10
-1.815383044974191
 20
0.2000347329581054
 30
0.0
 11
-23.66012204497419
 21
0.0005393996247349
 31
0.0
  0
ARC
  5
1A5
330
162
100
AcDbEntity
  8
A31-_Buitenschrijnwerk
  6
Continuous
 62
     0
100
AcDbCircle
 10
-12.2888880449741
 20
2.893221732958124
 30
0.0
 40
2.493691666666664
100
AcDbArc
 50
270.0
 51
0.0
  0
ARC
  5
1A6
330
162
100
AcDbEntity
  8
A31-_Buitenschrijnwerk
  6
Continuous
 62
     0
100
AcDbCircle
 10
-12.2888880449741
 20
2.893221732958124
 30
0.0
 40
0.9974766666666658
100
AcDbArc
 50
270.0
 51
0.0
  0
LINE
  5
1A7
330
162
100
AcDbEntity
  8
A31-_Buitenschrijnwerk
  6
Continuous
 62
     0
100
AcDbLine
 10
-9.296458044974192
 20
0.1317142311358808
 30
0.0
 11
-9.29645804497419
 21
10.37429673295807
 31
0.0
  0
LINE
  5
1A8
330
162
100
AcDbEntity
  8
A31-_Buitenschrijnwerk
  6
Continuous
 62
     0
100
AcDbLine
 10
-2.064752211640851
 20
3.691203066291389
 30
0.0
 11
-2.064752211640851
 21
0.1977571612358915
 31
0.0
  0
LINE
  5
1A9
330
162
100
AcDbEntity
  8
A31-_Buitenschrijnwerk
  6
Continuous
 62
     0
100
AcDbLine
 10
0.1795702883591919
 20
3.691203066291389
 30
0.0
 11
-6.503523378307542
 21
3.691203066291393
 31
0.0
  0
LINE
  5
1AA
330
162
100
AcDbEntity
  8
A31-_Buitenschrijnwerk
  6
Continuous
 62
     0
100
AcDbLine
 10
-11.29141137830746
 20
2.893221732958124
 30
0.0
 11
-11.29141137830746
 21
9.987774524624732
 31
0.0
  0
LINE
  5
1AB
330
162
100
AcDbEntity
  8
A31-_Buitenschrijnwerk
  6
Continuous
 62
     0
100
AcDbLine
 10
-9.795196378307402
 20
2.893221732958124
 30
0.0
 11
-9.795196378307402
 21
9.975306066291437
 31
0.0
  0
ARC
  5
1AC
330
162
100
AcDbEntity
  8
A31-_Buitenschrijnwerk
  6
Continuous
 62
     0
100
AcDbCircle
 10
-6.503523378307541
 20
6.484137732958096
 30
0.0
 40
2.792934666666663
100
AcDbArc
 50
180.0
 51
270.0
  0
LINE
  5
1AD
330
162
100
AcDbEntity
  8
A31-_Buitenschrijnwerk
  6
Continuous
 62
     0
100
AcDbLine
 10
-6.494230220696334
 20
3.70049456144142
 30
0.0
 11
-9.287164887362987
 21
6.49342922810807
 31
0.0
  0
LINE
  5
1AE
330
162
100
AcDbEntity
  8
A31-_Buitenschrijnwerk
  6
Continuous
 62
     0
100
AcDbLine
 10
0.5137582209147372
 20
0.1002870662914184
 30
0.0
 11
-7.277049908696466
 21
0.1002870662914219
 31
0.0
  0
ARC
  5
1AF
330
162
100
AcDbEntity
  8
A31-_Buitenschrijnwerk
  6
Continuous
 62
     0
100
AcDbCircle
 10
-3.603459717640848
 20
-5.251963256941905
 30
0.0
 40
0.9974766666666658
100
AcDbArc
 50
109.9999999999975
 51
188.0000000000008
  0
LINE
  5
1B0
330
162
100
AcDbEntity
  8
A31-_Buitenschrijnwerk
  6
Continuous
 62
     0
100
AcDbLine
 10
-3.772631760307517
 20
-4.252044434903028
 30
0.0
 11
-3.953008790863021
 21
-4.317695024180784
 31
0.0
  0
LINE
  5
1B1
330
162
100
AcDbEntity
  8
A31-_Buitenschrijnwerk
  6
Continuous
 62
     0
100
AcDbLine
 10
-3.119716783529794
 20
-4.286262871953002
 30
0.0
 11
-1.542007939863049
 21
-6.166504726158546
 31
0.0
  0
ARC
  5
1B2
330
162
100
AcDbEntity
  8
A31-_Buitenschrijnwerk
  6
Continuous
 62
     0
100
AcDbCircle
 10
-1.389177889918645
 20
-6.038272450814099
 30
0.0
 40
0.1994953333333332
100
AcDbArc
 50
220.0000000000026
 51
289.9999999999975
  0
ARC
  5
1B3
330
162
100
AcDbEntity
  8
A31-_Buitenschrijnwerk
  6
HIDDEN
 62
     0
100
AcDbCircle
 10
-1.638547056585306
 20
-6.129034515175218
 30
0.0
 40
0.1994953333333332
100
AcDbArc
 50
220.0000000000026
 51
289.9999999999975
  0
LINE
  5
1B4
330
162
100
AcDbEntity
  8
A31-_Buitenschrijnwerk
  6
HIDDEN
 62
     0
100
AcDbLine
 10
-1.570319652585267
 20
-6.316498617447438
 30
0.0
 11
-1.32095048591861
 21
-6.225736553086374
 31
0.0
  0
LINE
  5
1B5
330
162
100
AcDbEntity
  8
A31-_Buitenschrijnwerk
  6
HIDDEN
 62
     0
100
AcDbLine
 10
-1.312006445140843
 20
-6.222476466847449
 30
0.0
 11
-1.406500734696438
 21
-6.25687611215859
 31
0.0
  0
ARC
  5
1B6
330
162
100
AcDbEntity
  8
A31-_Buitenschrijnwerk
  6
HIDDEN
 62
     0
100
AcDbCircle
 10
-1.202583254807446
 20
-6.501099961686364
 30
0.0
 40
0.2992429999999997
100
AcDbArc
 50
20.00000000000373
 51
105.0499899999999
  0
ARC
  5
1B7
330
162
100
AcDbEntity
  8
A31-_Buitenschrijnwerk
  6
Continuous
 62
     0
100
AcDbCircle
 10
-1.141421310529718
 20
-6.69113755375856
 30
0.0
 40
0.498738333333333
100
AcDbArc
 50
91.06584999999816
 51
109.9999999999975
  0
LINE
  5
1B8
330
162
100
AcDbEntity
  8
A31-_Buitenschrijnwerk
  6
Continuous
 62
     0
100
AcDbLine
 10
1.226571671525787
 20
-5.387965875519711
 30
0.0
 11
0.7134031757480592
 21
-6.596895958291911
 31
0.0
  0
ARC
  5
1B9
330
162
100
AcDbEntity
  8
A31-_Buitenschrijnwerk
  6
Continuous
 62
     0
100
AcDbCircle
 10
1.276794621692516
 20
-4.288610267041928
 30
0.0
 40
0.498738333333333
100
AcDbArc
 50
329.9999999999995
 51
0.0
  0
LINE
  5
1BA
330
162
100
AcDbEntity
  8
A31-_Buitenschrijnwerk
  6
Continuous
 62
     0
100
AcDbLine
 10
1.28090090063698
 20
-5.278973262614121
 30
0.0
 11
1.708718642970257
 21
-4.537979433708532
 31
0.0
  0
ARC
  5
1BB
330
162
100
AcDbEntity
  8
A31-_Buitenschrijnwerk
  6
Continuous
 62
     0
100
AcDbCircle
 10
2.144748943192464
 20
-5.777711595947438
 30
0.0
 40
0.9974766666666658
100
AcDbArc
 50
149.9999999999995
 51
157.0000000000008
  0
ARC
  5
1BC
330
162
100
AcDbEntity
  8
A31-_Buitenschrijnwerk
  6
Continuous
 62
     0
100
AcDbCircle
 10
1.276794621692516
 20
-4.089114933708556
 30
0.0
 40
0.498738333333333
100
AcDbArc
 50
0.0
 51
66.00000000000227
  0
LINE
  5
1BD
330
162
100
AcDbEntity
  8
A31-_Buitenschrijnwerk
  6
Continuous
 62
     0
100
AcDbLine
 10
1.775532955025832
 20
-4.288610267041928
 30
0.0
 11
1.775532955025832
 21
-4.089114933708556
 31
0.0
  0
LINE
  5
1BE
330
162
100
AcDbEntity
  8
A31-_Buitenschrijnwerk
  6
Continuous
 62
     0
100
AcDbLine
 10
0.2979375194702441
 20
-3.107356836847442
 30
0.0
 11
1.479648126470264
 21
-3.633494191753035
 31
0.0
  0
ARC
  5
1BF
330
162
100
AcDbEntity
  8
A31-_Buitenschrijnwerk
  6
Continuous
 62
     0
100
AcDbCircle
 10
0.3790656216924546
 20
-2.925107875080817
 30
0.0
 40
0.1994953333333332
100
AcDbArc
 50
180.0
 51
246.0000000000023
  0
LINE
  5
1C0
330
162
100
AcDbEntity
  8
A31-_Buitenschrijnwerk
  6
Continuous
 62
     0
100
AcDbLine
 10
0.1795702883591912
 20
-1.794918600375222
 30
0.0
 11
0.1795702883591911
 21
-2.925107875080817
 31
0.0
  0
ARC
  5
1C1
330
162
100
AcDbEntity
  8
A31-_Buitenschrijnwerk
  6
Continuous
 62
     0
100
AcDbCircle
 10
1.815215901748093
 20
-7.064589492836329
 30
0.0
 40
1.196971999999998
100
AcDbArc
 50
157.0000000000008
 51
186.6202999999983
  0
LINE
  5
1C2
330
162
100
AcDbEntity
  8
A31-_Buitenschrijnwerk
  6
Continuous
 62
     0
100
AcDbLine
 10
0.1724882040258497
 20
-8.198491043203006
 30
0.0
 11
0.8482453964702932
 21
-6.872236092436367
 31
0.0
  0
ARC
  5
1C3
330
162
100
AcDbEntity
  8
A31-_Buitenschrijnwerk
  6
Continuous
 62
     0
100
AcDbCircle
 10
0.395341115970254
 20
-6.662546547569665
 30
0.0
 40
0.498738333333333
100
AcDbArc
 50
332.9999999999982
 51
91.06584999999816
  0
LINE
  5
1C4
330
162
100
AcDbEntity
  8
A31-_Buitenschrijnwerk
  6
Continuous
 62
     0
100
AcDbLine
 10
0.3860645829701923
 20
-6.163894662214143
 30
0.0
 11
-1.15069784352978
 21
-6.192485668402984
 31
0.0
  0
LINE
  5
1C5
330
162
100
AcDbEntity
  8
A31-_Buitenschrijnwerk
  6
HIDDEN
 62
     0
100
AcDbLine
 10
-1.791377106529706
 20
-6.25726845298079
 30
0.0
 11
-3.46022206830745
 21
-4.268416351925216
 31
0.0
  0
LINE
  5
1C6
330
162
100
AcDbEntity
  8
A31-_Buitenschrijnwerk
  6
HIDDEN
 62
     0
100
AcDbLine
 10
-0.784923149863019
 20
-6.773680410386356
 30
0.0
 11
-4.221097269640901
 21
-8.024349904275247
 31
0.0
  0
LINE
  5
1C7
330
162
100
AcDbEntity
  8
A31-_Buitenschrijnwerk
  6
HIDDEN
 62
     0
100
AcDbLine
 10
-0.6484517172519129
 20
-7.148610277391865
 30
0.0
 11
-4.16434084730754
 21
-8.428284730286371
 31
0.0
  0
LINE
  5
1C8
330
162
100
AcDbEntity
  8
A31-_Buitenschrijnwerk
  6
Continuous
 62
     0
100
AcDbLine
 10
-3.772631760307517
 20
-4.252044434903028
 30
0.0
 11
-3.119716783529794
 21
-4.286262871953002
 31
0.0
  0
LINE
  5
1C9
330
162
100
AcDbEntity
  8
A31-_Buitenschrijnwerk
  6
HIDDEN
 62
     0
100
AcDbLine
 10
5.166953621692488
 20
-2.293656933708543
 30
0.0
 11
0.3700717070813691
 21
-3.139477247975241
 31
0.0
  0
LINE
  5
1CA
330
162
100
AcDbEntity
  8
A31-_Buitenschrijnwerk
  6
HIDDEN
 62
     0
100
AcDbLine
 10
3.434852014636927
 20
-1.273276540314103
 30
0.0
 11
1.676816014247995
 21
-3.784023395519691
 31
0.0
  0
ARC
  5
1CB
330
162
100
AcDbEntity
  8
A31-_Buitenschrijnwerk
  6
Continuous
 62
     0
100
AcDbCircle
 10
0.2377398026369057
 20
0.2581942724691792
 30
0.0
 40
0.2992429999999997
100
AcDbArc
 50
350.0000000000015
 51
99.99999999999861
  0
LINE
  5
1CC
330
162
100
AcDbEntity
  8
A31-_Buitenschrijnwerk
  6
Continuous
 62
     0
100
AcDbLine
 10
-1.815383044974191
 20
0.2000347329581054
 30
0.0
 11
0.1857712683036369
 21
0.5528921037914465
 31
0.0
  0
LINE
  5
1CD
330
162
100
AcDbEntity
  8
A31-_Buitenschrijnwerk
  6
HIDDEN
 62
     0
100
AcDbLine
 10
4.937234745359154
 20
0.2000347329581018
 30
0.0
 11
0.5324276591924207
 21
0.2000347329581054
 31
0.0
  0
LINE
  5
1CE
330
162
100
AcDbEntity
  8
A31-_Buitenschrijnwerk
  6
Continuous
 62
     0
100
AcDbLine
 10
0.1795702883591912
 20
-1.794918600375222
 30
0.0
 11
0.5324276591924207
 21
0.2062323879802967
 31
0.0
  0
LINE
  5
1CF
330
162
100
AcDbEntity
  8
A31-_Buitenschrijnwerk
  6
HIDDEN
 62
     0
100
AcDbLine
 10
5.156263996747964
 20
-0.9697460531085795
 30
0.0
 11
3.434852014636927
 21
-1.273276540314103
 31
0.0
  0
ARC
  5
1D0
330
162
100
AcDbEntity
  8
A31-_Buitenschrijnwerk
  6
Continuous
 62
     0
100
AcDbCircle
 10
-7.277049908696465
 20
1.097763732958114
 30
0.0
 40
0.9974766666666658
100
AcDbArc
 50
252.3219050000016
 51
270.0
  0
ARC
  5
1D1
330
162
100
AcDbEntity
  8
A31-_Buitenschrijnwerk
  6
Continuous
 62
     0
100
AcDbCircle
 10
-20.66769204497417
 20
2.893221732958124
 30
0.0
 40
0.9974766666666658
100
AcDbArc
 50
180.0
 51
270.0
  0
ARC
  5
1D2
330
162
100
AcDbEntity
  8
A31-_Buitenschrijnwerk
  6
Continuous
 62
     0
100
AcDbCircle
 10
-20.66769204497417
 20
2.893221732958124
 30
0.0
 40
2.493691666666664
100
AcDbArc
 50
180.0
 51
270.0
  0
LINE
  5
1D3
330
162
100
AcDbEntity
  8
A31-_Buitenschrijnwerk
  6
Continuous
 62
     0
100
AcDbLine
 10
-23.66012204497419
 20
10.37429673295807
 30
0.0
 11
-23.66012204497419
 21
0.0005393996247349
 31
0.0
  0
LINE
  5
1D4
330
162
100
AcDbEntity
  8
A31-_Buitenschrijnwerk
  6
Continuous
 62
     0
100
AcDbLine
 10
-23.16138371164087
 20
9.975306066291441
 30
0.0
 11
-23.16138371164087
 21
2.893221732958124
 31
0.0
  0
LINE
  5
1D5
330
162
100
AcDbEntity
  8
A31-_Buitenschrijnwerk
  6
Continuous
 62
     0
100
AcDbLine
 10
-21.6651687116408
 20
9.987774524624736
 30
0.0
 11
-21.6651687116408
 21
2.893221732958124
 31
0.0
  0
LINE
  5
1D6
330
162
100
AcDbEntity
  8
A31-_Buitenschrijnwerk
  6
Continuous
 62
     0
100
AcDbLine
 10
0.1795702883591896
 20
-15.01148443370861
 30
0.0
 11
0.1795702883591889
 21
-20.74697526704189
 31
0.0
  0
LINE
  5
1D7
330
162
100
AcDbEntity
  8
A31-_Buitenschrijnwerk
  6
CENTERLINE
 62
     0
100
AcDbLine
 10
0.6201557320258302
 20
-8.916005933836354
 30
0.0
 11
-4.255676460751916
 21
-10.69066322041411
 31
0.0
  0
LINE
  5
1D8
330
162
100
AcDbEntity
  8
A31-_Buitenschrijnwerk
  6
Continuous
 62
     0
100
AcDbLine
 10
1.709433501248057
 20
-12.02462700335303
 30
0.0
 11
1.429125933303633
 21
-12.12935872843077
 31
0.0
  0
ARC
  5
1D9
330
162
100
AcDbEntity
  8
A31-_Buitenschrijnwerk
  6
Continuous
 62
     0
100
AcDbCircle
 10
1.376542288359196
 20
-11.93691389266969
 30
0.0
 40
0.1994953333333332
100
AcDbArc
 50
186.6203025999953
 51
285.2787499999959
  0
ARC
  5
1DA
330
162
100
AcDbEntity
  8
A31-_Buitenschrijnwerk
  6
Continuous
 62
     0
100
AcDbCircle
 10
0.4289394550258479
 20
-15.01148443370861
 30
0.0
 40
0.2493691666666665
100
AcDbArc
 50
131.581229999999
 51
180.0
  0
ARC
  5
1DB
330
162
100
AcDbEntity
  8
A31-_Buitenschrijnwerk
  6
Continuous
 62
     0
100
AcDbCircle
 10
0.7264036216369725
 20
-12.38420071707523
 30
0.0
 40
0.498738333333333
100
AcDbArc
 50
8.906660000000488
 51
20.00000000000373
  0
LINE
  5
1DC
330
162
100
AcDbEntity
  8
A31-_Buitenschrijnwerk
  6
Continuous
 62
     0
100
AcDbLine
 10
0.4725125607480591
 20
-10.22844749523077
 30
0.0
 11
1.195051408859247
 21
-12.21362223230856
 31
0.0
  0
LINE
  5
1DD
330
162
100
AcDbEntity
  8
A31-_Buitenschrijnwerk
  6
Continuous
 62
     0
100
AcDbLine
 10
1.219123845748083
 20
-12.30698272338636
 30
0.0
 11
0.7504594339147764
 21
-12.47756120815299
 31
0.0
  0
LINE
  5
1DE
330
162
100
AcDbEntity
  8
A31-_Buitenschrijnwerk
  6
HIDDEN
 62
     0
100
AcDbLine
 10
0.0493497095258465
 20
-11.98224754470856
 30
0.0
 11
0.6317430859702826
 21
-13.58235638938635
 31
0.0
  0
LINE
  5
1DF
330
162
100
AcDbEntity
  8
A31-_Buitenschrijnwerk
  6
Continuous
 62
     0
100
AcDbLine
 10
2.037719696859171
 20
-13.07062093508631
 30
0.0
 11
0.8768397275813828
 21
-13.49314872616413
 31
0.0
  0
LINE
  5
1E0
330
162
100
AcDbEntity
  8
A31-_Buitenschrijnwerk
  6
Continuous
 62
     0
100
AcDbLine
 10
1.696566052248061
 20
-12.13329876126409
 30
0.0
 11
1.227901640414756
 21
-12.30387724603076
 31
0.0
  0
LINE
  5
1E1
330
162
100
AcDbEntity
  8
A31-_Buitenschrijnwerk
  6
HIDDEN
 62
     0
100
AcDbLine
 10
1.224892585803595
 20
-12.39987772535301
 30
0.0
 11
1.20474355713699
 21
-13.04016630999192
 31
0.0
  0
ARC
  5
1E2
330
162
100
AcDbEntity
  8
A31-_Buitenschrijnwerk
  6
HIDDEN
 62
     0
100
AcDbCircle
 10
0.7062545929702573
 20
-13.02448763925301
 30
0.0
 40
0.498738333333333
100
AcDbArc
 50
289.9999999999975
 51
358.198589999999
  0
ARC
  5
1E3
330
162
100
AcDbEntity
  8
A31-_Buitenschrijnwerk
  6
HIDDEN
 62
     0
100
AcDbCircle
 10
0.7264036216369725
 20
-12.38420071707523
 30
0.0
 40
0.498738333333333
100
AcDbArc
 50
358.198589999999
 51
8.906660000000488
  0
ARC
  5
1E4
330
162
100
AcDbEntity
  8
A31-_Buitenschrijnwerk
  6
HIDDEN
 62
     0
100
AcDbCircle
 10
1.057333130414772
 20
-11.83521615911965
 30
0.0
 40
0.498738333333333
100
AcDbArc
 50
288.9293699999992
 51
289.9999999999975
  0
LINE
  5
1E5
330
162
100
AcDbEntity
  8
A31-_Buitenschrijnwerk
  6
Continuous
 62
     0
100
AcDbLine
 10
0.8768397275813828
 20
-13.49314872616413
 30
0.0
 11
-0.2587209589742009
 21
-13.90645484545857
 31
0.0
  0
LINE
  5
1E6
330
162
100
AcDbEntity
  8
A31-_Buitenschrijnwerk
  6
Continuous
 62
     0
100
AcDbLine
 10
0.7504594339147764
 20
-12.47756120815299
 30
0.0
 11
0.0093508951924273
 21
-12.74730051081415
 31
0.0
  0
LINE
  5
1E7
330
162
100
AcDbEntity
  8
A31-_Buitenschrijnwerk
  6
Continuous
 62
     0
100
AcDbLine
 10
-0.1611843655852717
 20
-12.27872088449746
 30
0.0
 11
0.0093508951924273
 21
-12.74730051081415
 31
0.0
  0
LINE
  5
1E8
330
162
100
AcDbEntity
  8
A31-_Buitenschrijnwerk
  6
Continuous
 62
     0
100
AcDbLine
 10
0.4558547004147518
 20
-10.60980277443076
 30
0.0
 11
-0.1445431298631065
 21
-11.89736726775854
 31
0.0
  0
ARC
  5
1E9
330
162
100
AcDbEntity
  8
A31-_Buitenschrijnwerk
  6
Continuous
 62
     0
100
AcDbCircle
 10
0.0038481489147522
 20
-10.39902597999744
 30
0.0
 40
0.498738333333333
100
AcDbArc
 50
335.0000000000005
 51
20.00000000000373
  0
ARC
  5
1EA
330
162
100
AcDbEntity
  8
A31-_Buitenschrijnwerk
  6
Continuous
 62
     0
100
AcDbCircle
 10
0.3074634216368928
 20
-12.10814239973078
 30
0.0
 40
0.498738333333333
100
AcDbArc
 50
155.0000000000005
 51
200.0000000000037
  0
LINE
  5
1EB
330
162
100
AcDbEntity
  8
A31-_Buitenschrijnwerk
  6
Continuous
 62
     0
100
AcDbLine
 10
-0.2587209589742009
 20
-13.90645484545857
 30
0.0
 11
-2.825294920751896
 21
-13.32639223949192
 31
0.0
  0
LINE
  5
1EC
330
162
100
AcDbEntity
  8
A31-_Buitenschrijnwerk
  6
HIDDEN
 62
     0
100
AcDbLine
 10
0.9208616978036651
 20
-11.46028795457522
 30
0.0
 11
-3.351630108529742
 21
-13.01535075298637
 31
0.0
  0
ARC
  5
1ED
330
162
100
AcDbEntity
  8
A31-_Buitenschrijnwerk
  6
HIDDEN
 62
     0
100
AcDbCircle
 10
-0.5919446640853572
 20
-8.762093621708553
 30
0.0
 40
0.498738333333333
100
AcDbArc
 50
8.000000000000991
 51
20.00000000000373
  0
LINE
  5
1EE
330
162
100
AcDbEntity
  8
A31-_Buitenschrijnwerk
  6
Continuous
 62
     0
100
AcDbLine
 10
0.1197715621924966
 20
-9.259284203747474
 30
0.0
 11
0.4725125607480591
 21
-10.22844749523077
 31
0.0
  0
ARC
  5
1EF
330
162
100
AcDbEntity
  8
A31-_Buitenschrijnwerk
  6
Continuous
 62
     0
100
AcDbCircle
 10
-2.605401189585222
 20
-12.35345349882522
 30
0.0
 40
0.9974766666666658
100
AcDbArc
 50
188.0000000000008
 51
257.2647739999982
  0
LINE
  5
1F0
330
162
100
AcDbEntity
  8
A31-_Buitenschrijnwerk
  6
HIDDEN
 62
     0
100
AcDbLine
 10
0.7844068898035907
 20
-11.08535975003078
 30
0.0
 11
-3.553270016696411
 21
-12.66414254357524
 31
0.0
  0
LINE
  5
1F1
330
162
100
AcDbEntity
  8
A31-_Buitenschrijnwerk
  6
HIDDEN
 62
     0
100
AcDbLine
 10
5.166953621692488
 20
-11.09650322685853
 30
0.0
 11
2.393685869970304
 21
-9.154633939264099
 31
0.0
  0
LINE
  5
1F2
330
162
100
AcDbEntity
  8
A31-_Buitenschrijnwerk
  6
Continuous
 62
     0
100
AcDbLine
 10
2.264346395525854
 20
-13.04963735094187
 30
0.0
 11
0.2634414514147199
 21
-14.8249513096586
 31
0.0
  0
ARC
  5
1F3
330
162
100
AcDbEntity
  8
A31-_Buitenschrijnwerk
  6
Continuous
 62
     0
100
AcDbCircle
 10
1.867151186859185
 20
-12.6019598481752
 30
0.0
 40
0.5984859999999994
100
AcDbArc
 50
311.5812299999991
 51
105.2787499999959
  0
LINE
  5
1F4
330
162
100
AcDbEntity
  8
A31-_Buitenschrijnwerk
  6
HIDDEN
 62
     0
100
AcDbLine
 10
5.166953621692488
 20
-13.76463860037526
 30
0.0
 11
0.5387117621925757
 21
-14.58072413520852
 31
0.0
  0
LINE
  5
1F5
330
162
100
AcDbEntity
  8
A31-_Buitenschrijnwerk
  6
HIDDEN
 62
     0
100
AcDbLine
 10
5.166953621692488
 20
-11.09650322685853
 30
0.0
 11
1.16017297474811
 21
-11.80300930001411
 31
0.0
  0
LINE
  5
1F6
330
162
100
AcDbEntity
  8
A31-_Buitenschrijnwerk
  6
HIDDEN
 62
     0
100
AcDbLine
 10
2.393685869970304
 20
-9.154633939264099
 30
0.0
 11
0.8836890673591707
 21
-9.420885398514103
 31
0.0
  0
ARC
  5
1F7
330
162
100
AcDbEntity
  8
A31-_Buitenschrijnwerk
  6
Continuous
 62
     0
100
AcDbCircle
 10
1.867151186859185
 20
-12.6019598481752
 30
0.0
 40
0.498738333333333
100
AcDbArc
 50
289.9999999999975
 51
109.9999999999975
  0
LINE
  5
1F8
330
162
100
AcDbEntity
  8
A31-_Buitenschrijnwerk
  6
Continuous
 62
     0
100
AcDbLine
 10
1.177046955025826
 20
-20.74697526704189
 30
0.0
 11
0.1795702883591889
 21
-20.74697526704189
 31
0.0
  0
LWPOLYLINE
  5
1F9
330
162
100
AcDbEntity
  8
A31-_Buitenschrijnwerk
  6
DASHED2
 62
     0
100
AcDbPolyline
 90
        2
 70
     0
 43
0.0
 10
23.3386922883592
 20
-7.673722600375233
 10
15.3386922883592
 20
-7.673722600375231
  0
LWPOLYLINE
  5
1FA
330
162
100
AcDbEntity
  8
A31-_Buitenschrijnwerk
  6
DASHED2
 62
     0
100
AcDbPolyline
 90
        2
 70
     0
 43
0.0
 10
23.3386922883592
 20
-12.67372260037523
 10
15.33869228835919
 20
-12.67372260037523
  0
LWPOLYLINE
  5
1FB
330
162
100
AcDbEntity
  8
A31-_Buitenschrijnwerk
  6
DASHED2
 62
     0
100
AcDbPolyline
 90
        6
 70
   128
 43
0.0
 10
16.33869228835919
 20
-17.42372260037523
 10
22.3386922883592
 20
-17.42372260037523
 42
0.4142100000000001
 10
23.3386922883592
 20
-16.42372260037523
 10
23.3386922883592
 20
-3.923722600375233
 42
0.4142100000000001
 10
22.3386922883592
 20
-2.923722600375234
 10
16.3386922883592
 20
-2.923722600375232
  0
ENDBLK
  5
1FC
330
162
100
AcDbEntity
  8
0
100
AcDbBlockEnd
  0
BLOCK
  5
22D
330
22A
100
AcDbEntity
  8
0
100
AcDbBlockBegin
  2
Vignet A4
 70
     2
 10
0.0
 20
0.0
 30
0.0
  3
Vignet A4
  1

  0
LWPOLYLINE
  5
22E
330
22A
100
AcDbEntity
  8
A03-_TEXT
100
AcDbPolyline
 90
        4
 70
     1
 43
0.04
 10
-0.0000000000000024
 20
1.541548163868727
 10
19.75290812043011
 20
1.541548163868725
 10
19.75290812043011
 20
0.0000000000000001
 10
0.0000000000000008
 20
0.0000000000000018
  0
MTEXT
  5
22F
330
22A
100
AcDbEntity
  8
A03-_TEXT
100
AcDbMText
 10
0.1580804067372408
 20
1.459292786382136
 30
0.0
 40
0.125
 41
0.6530597075253355
 71
     1
 72
     5
  1
BENAMING
  7
subtitel
 73
     1
 44
1.0
1001
ACAD
1000
MTEXTBEGIN
1070
    73
1070
     1
1070
    44
1040
1.0
1070
    74
1070
     0
1000
MTEXTEND
  0
LINE
  5
230
330
22A
100
AcDbEntity
  8
A03-_TEXT
100
AcDbLine
 10
15.27656093924665
 20
0.0000000000021898
 30
0.0
 11
15.27656093924665
 21
1.541548163868726
 31
0.0
  0
MTEXT
  5
231
330
22A
100
AcDbEntity
  8
A03-_TEXT
100
AcDbMText
 10
15.51524609386684
 20
0.4915461099482044
 30
0.0
 40
0.125
 41
0.6530597075253355
 71
     1
 72
     5
  1
tekening-nummer
  7
subtitel
 73
     1
 44
1.0
1001
ACAD
1000
MTEXTBEGIN
1070
    73
1070
     1
1070
    44
1040
1.0
1070
    74
1070
     0
1000
MTEXTEND
  0
MTEXT
  5
232
330
22A
100
AcDbEntity
  8
A03-_TEXT
100
AcDbMText
 10
19.11087434897777
 20
0.4915461099482044
 30
0.0
 40
0.125
 41
0.6530597075253355
 71
     1
 72
     5
  1
schaal
  7
subtitel
 73
     1
 44
1.0
1001
ACAD
1000
MTEXTBEGIN
1070
    73
1070
     1
1070
    44
1040
1.0
1070
    74
1070
     0
1000
MTEXTEND
  0
LWPOLYLINE
  5
233
330
22A
100
AcDbEntity
  8
A03-_TEXT
100
AcDbPolyline
 90
        4
 70
     1
 43
0.0
 10
19.75290812043011
 20
-0.0239409047779334
 10
0.0000000000000032
 20
0.0000000000000006
 10
-0.0000000000000537
 20
27.45000000000003
 10
19.75290812043006
 20
27.4260590952221
  0
ATTDEF
  5
234
330
22A
100
AcDbEntity
  8
A03-_TEXT
100
AcDbText
 10
0.1340993912614006
 20
0.4104920567209845
 30
0.0
 40
0.4800000000000001
  1

  7
variabelen
100
AcDbAttributeDefinition
  3
Benaming Tekening?
  2
TEKNAAM
 70
     0
  0
ATTDEF
  5
235
330
22A
100
AcDbEntity
  8
A03-_TEXT
100
AcDbText
 10
15.51524609386687
 20
0.0867171186608586
 30
0.0
 40
0.13
  1

  7
platte tekst
100
AcDbAttributeDefinition
  3
BLAD x/#?
  2
BLAD
 70
     0
  0
ATTDEF
  5
236
330
22A
100
AcDbEntity
  8
A03-_TEXT
100
AcDbText
 10
19.1108743489778
 20
0.0867171186608586
 30
0.0
 40
0.13
  1

  7
platte tekst
100
AcDbAttributeDefinition
  3
Schaal?
  2
SCHAAL
 70
     0
  0
MTEXT
  5
237
330
22A
100
AcDbEntity
  8
A03-_TEXT
100
AcDbMText
 10
15.51524609386684
 20
1.262320191881472
 30
0.0
 40
0.125
 41
1.854138154178434
 71
     1
 72
     5
  1
Mato principe details\Pwww.alucoating.be
  7
subtitel
 73
     1
 44
1.0
1001
ACAD
1000
MTEXTBEGIN
1070
    73
1070
     1
1070
    44
1040
1.0
1070
    74
1070
     0
1000
MTEXTEND
  0
ENDBLK
  5
238
330
22A
100
AcDbEntity
  8
0
100
AcDbBlockEnd
  0
ENDSEC
  0
SECTION
  2
ENTITIES
  0
LWPOLYLINE
  5
CE
330
70
100
AcDbEntity
  8
Defpoints
  6
Continuous
100
AcDbPolyline
 90
        4
 70
     1
 43
0.0
 10
-0.0000000000000568
 20
2.712403659115086
 10
19.84999999999999
 20
2.712403659115086
 10
19.84999999999999
 20
27.55000000000003
 10
-0.0000000000000568
 20
27.55000000000003
  0
LWPOLYLINE
  5
CF
330
70
100
AcDbEntity
  8
Defpoints
  6
Continuous
100
AcDbPolyline
 90
        4
 70
     1
 43
0.0
 10
-0.0000000000000573
 20
2.712403659115086
 10
5.371394729158968
 20
2.712403659115086
 10
5.371394729158968
 20
8.393316039508377
 10
-0.0000000000000573
 20
8.393316039508377
  0
HATCH
  5
D0
330
70
100
AcDbEntity
  8
A20-_Hatch
100
AcDbHatch
 10
0.0
 20
0.0
 30
0.0
210
0.0
220
0.0
230
1.0
  2
AR-SAND
 70
     0
 71
     0
 91
        1
 92
        1
 93
        7
 72
     1
 10
13.85121950777488
 20
19.98078418338536
 11
4.591219507775031
 21
19.98078418338537
 72
     1
 10
4.591219507775122
 20
19.98078418338536
 11
4.591220140086034
 21
19.78078418338537
 72
     1
 10
4.591220140086079
 20
19.78078418338538
 11
7.471219507775094
 21
19.78078418338538
 72
     1
 10
7.471219507775003
 20
19.78078418338538
 11
13.65121950777493
 21
19.78078418338538
 72
     1
 10
13.65121950777484
 20
19.78078418338538
 11
13.65121950777484
 21
16.12026843724772
 72
     1
 10
13.65121950777484
 20
16.12026843724772
 11
13.85121950777484
 21
16.12026843724772
 72
     1
 10
13.85121950777488
 20
16.12026843724772
 11
13.85121950777489
 21
19.98078418338538
 97
        0
 75
     1
 76
     1
 52
-0.000000000000014
 41
0.05
 77
     0
 78
     4
 53
37.49999999999999
 43
-1785.131863971432
 44
-228.2754785054593
 45
-0.0160003129598403
 46
0.4894132373293424
 79
     6
 49
0.0
 49
-0.3860800000000001
 49
0.0
 49
-0.4318000000000001
 49
0.0
 49
-0.4127500000000001
 53
7.499999999999986
 43
-1785.131863971432
 44
-228.2754785054593
 45
0.4495232831380029
 46
0.7168251005683543
 79
     6
 49
0.0
 49
-0.20828
 49
0.0
 49
-0.3479800000000001
 49
0.0
 49
-0.13335
 53
327.5
 43
-1785.444283971432
 44
-228.2754785054593
 45
0.7909923702414581
 46
0.0014371846785456
 79
     6
 49
0.0
 49
-0.127
 49
0.0
 49
-0.4572000000000001
 49
0.0
 49
-0.5969000000000002
 53
317.5
 43
-1785.444283971432
 44
-228.2754785054593
 45
0.7635564524722973
 46
0.2229293232572161
 79
     6
 49
0.0
 49
-0.0635
 49
0.0
 49
-0.29972
 49
0.0
 49
-0.3429
 98
        1
 10
11.38595587223517
 20
19.91838584597264
1001
GradientColor1ACI
1070
     5
1001
GradientColor2ACI
1070
     2
1001
ACAD
1010
0.0
1020
0.0
1030
0.0
  0
HATCH
  5
D8
330
70
100
AcDbEntity
  8
A20-_Hatch
100
AcDbHatch
 10
0.0
 20
0.0
 30
0.0
210
0.0
220
0.0
230
1.0
  2
ANSI32
 70
     0
 71
     1
 91
        1
 92
        7
 72
     0
 73
     1
 93
        4
 10
13.47121948235531
 20
16.98078801129077
 10
13.471219507775
 20
19.78078418338538
 10
7.71121950777524
 20
19.78078418338538
 10
7.71121950777524
 20
16.98078418338537
 97
        1
330
DC
 75
     1
 76
     1
 52
-0.000000000000014
 41
0.5
 77
     0
 78
     2
 53
44.99999999999999
 43
-1879.423657271131
 44
-301.1651824021404
 45
-0.6735192090801866
 46
0.6735192090801868
 79
     0
 53
44.99999999999999
 43
-1878.974644271131
 44
-301.1651824021404
 45
-0.6735192090801866
 46
0.6735192090801868
 79
     0
 47
0.1822121415294452
 98
        1
 10
10.66841058851264
 20
18.01890089390417
1001
GradientColor1ACI
1070
     5
1001
GradientColor2ACI
1070
     2
1001
ACAD
1010
0.0
1020
0.0
1030
0.0
  0
HATCH
  5
D9
330
70
100
AcDbEntity
  8
A20-_Hatch
100
AcDbHatch
 10
0.0
 20
0.0
 30
0.0
210
0.0
220
0.0
230
1.0
  2
ANSI32
 70
     0
 71
     0
 91
        1
 92
        5
 93
        4
 72
     1
 10
4.591220140086306
 20
19.78078418338543
 11
4.591228992441619
 21
16.98078418338543
 72
     1
 10
4.591228992441756
 20
16.98078418338542
 11
7.471219507775094
 21
16.98078418338537
 72
     1
 10
7.471219507775003
 20
16.98078418338537
 11
7.471219507775004
 21
19.78078418338537
 72
     1
 10
7.471219507775003
 20
19.78078418338538
 11
4.591220140086352
 21
19.78078418338542
 97
        0
 75
     1
 76
     1
 52
-0.000000000000014
 41
0.5
 77
     0
 78
     2
 53
44.99999999999999
 43
-1885.423657271131
 44
-301.1651824021404
 45
-0.6735192090801866
 46
0.6735192090801868
 79
     0
 53
44.99999999999999
 43
-1884.974644271131
 44
-301.1651824021404
 45
-0.6735192090801866
 46
0.6735192090801868
 79
     0
 47
0.1822121415294452
 98
        1
 10
4.668410588512642
 20
18.01890089390417
1001
GradientColor1ACI
1070
     5
1001
GradientColor2ACI
1070
     2
1001
ACAD
1010
0.0
1020
0.0
1030
0.0
  0
LWPOLYLINE
  5
DA
330
70
100
AcDbEntity
  8
A422_BinnenAfwerk
100
AcDbPolyline
 90
        6
 70
     0
 43
0.0
 10
4.591219507775122
 20
19.98078418338536
 10
13.85121950777488
 20
19.98078418338536
 10
13.85121950777488
 20
16.12026843724772
 10
13.65121950777484
 20
16.12026843724772
 10
13.65121950777484
 20
19.78078418338538
 10
4.591220140086079
 20
19.78078418338538
  0
LWPOLYLINE
  5
DC
102
{ACAD_REACTORS
330
D8
102
}
330
70
100
AcDbEntity
  8
A22-_Binnenwand
100
AcDbPolyline
 90
        4
 70
     1
 43
0.0
 10
13.471219507775
 20
19.78078418338538
 10
13.47121948235531
 20
16.98078801129077
 10
7.71121950777524
 20
16.98078418338537
 10
7.71121950777524
 20
19.78078418338538
  0
LINE
  5
E0
330
70
100
AcDbEntity
  8
A412_BuitenAfwerk
100
AcDbLine
 10
13.471219507775
 20
14.98078418338576
 30
0.0
 11
4.591235315552694
 21
14.98078418338622
 31
0.0
  0
LWPOLYLINE
  5
E2
330
70
100
AcDbEntity
  8
A20-_Hatch
100
AcDbPolyline
 90
        7
 70
     0
 43
0.0
 10
7.314123276429199
 20
16.98078418338537
 10
8.468823814808274
 20
14.98078418338576
 10
9.623524353187349
 20
16.98078418338537
 10
10.77822489156642
 20
14.98078418338576
 10
11.9329254299455
 20
16.94071462916525
 10
13.0876259683248
 20
14.98078418338576
 10
13.471219507775
 20
15.99960250286125
  0
LWPOLYLINE
  5
E3
330
70
100
AcDbEntity
  8
A413_BuitenAfwerk
100
AcDbPolyline
 90
        4
 70
     1
 43
0.0
 10
13.471219507775
 20
14.58078418338573
 10
12.87121950777509
 20
14.58078418338573
 10
12.87121950777509
 20
14.98078418338576
 10
13.471219507775
 20
14.98078418338576
  0
LINE
  5
E5
330
70
100
AcDbEntity
  8
A413_BuitenAfwerk
100
AcDbLine
 10
13.471219507775
 20
14.98078418338576
 30
0.0
 11
12.87121950777509
 21
14.58078418338573
 31
0.0
  0
LINE
  5
E6
330
70
100
AcDbEntity
  8
A413_BuitenAfwerk
100
AcDbLine
 10
12.87121950777509
 20
14.98078418338576
 30
0.0
 11
13.471219507775
 21
14.58078418338573
 31
0.0
  0
LWPOLYLINE
  5
E7
330
70
100
AcDbEntity
  8
A22-_Binnenwand
100
AcDbPolyline
 90
        4
 70
     0
 43
0.0
 10
4.591220140086079
 20
19.78078418338538
 10
7.471219507775003
 20
19.78078418338538
 10
7.471219507775003
 20
16.98078418338537
 10
4.591228992441301
 20
16.98078418338537
  0
LINE
  5
E8
330
70
100
AcDbEntity
  8
A412_BuitenAfwerk
  6
Continuous
100
AcDbLine
 10
14.53559147687179
 20
13.62026643724772
 30
0.0
 11
16.21063157602725
 21
13.62026643724772
 31
0.0
  0
LINE
  5
E9
330
70
100
AcDbEntity
  8
A412_BuitenAfwerk
100
AcDbLine
 10
13.471219507775
 20
14.98078418338576
 30
0.0
 11
13.471219507775
 21
16.07187948544839
 31
0.0
  0
LINE
  5
EA
330
70
100
AcDbEntity
  8
0
  6
DASHDOT
 48
0.2
100
AcDbLine
 10
16.21060514541659
 20
21.98078418337536
 30
0.0
 11
16.21063779163842
 21
11.65478418424226
 31
0.0
  0
LWPOLYLINE
  5
EB
330
70
100
AcDbEntity
  8
A20-_Hatch
100
AcDbPolyline
 90
        4
 70
     0
 43
0.0
 10
4.59123125670726
 20
16.26459686170335
 10
5.004722199670823
 20
16.98078418338537
 10
6.15942273804967
 20
14.98078418338576
 10
7.314123276428972
 20
16.98078418338576
  0
LINE
  5
EC
102
{ACAD_REACTORS
330
21F
102
}
330
70
100
AcDbEntity
  8
0
  6
DASHDOT
 48
0.2
100
AcDbLine
 10
4.591213184664184
 20
21.98078418337536
 30
0.0
 11
4.591245830885782
 21
11.65478418424226
 31
0.0
  0
LINE
  5
ED
330
70
100
AcDbEntity
  8
A413_BuitenAfwerk
100
AcDbLine
 10
7.471219507775003
 20
19.78078418338538
 30
0.0
 11
7.71121950777524
 21
19.78078418338538
 31
0.0
  0
LINE
  5
EE
330
70
100
AcDbEntity
  8
A413_BuitenAfwerk
100
AcDbLine
 10
7.471219507775003
 20
16.98078418338537
 30
0.0
 11
7.71121950777524
 21
16.98078418338537
 31
0.0
  0
LWPOLYLINE
  5
EF
102
{ACAD_REACTORS
330
21F
102
}
330
70
100
AcDbEntity
  8
A412_BuitenAfwerk
  6
Continuous
100
AcDbPolyline
 90
       12
 70
     1
 43
0.0
 10
13.74559147687137
 20
14.58026643724759
 10
14.48559147687138
 20
14.58026643724759
 42
-0.4142135623730951
 10
14.49559147687137
 20
14.57026643724771
 10
14.49559147687137
 20
13.6302664372476
 42
0.4142135623730951
 10
14.50559147687158
 20
13.62026643724772
 10
14.52559147687157
 20
13.62026643724772
 42
0.4142135623730951
 10
14.53559147687156
 20
13.6302664372476
 10
14.53559147687156
 20
14.61026643724784
 42
0.4142135623730951
 10
14.52559147687157
 20
14.62026643724772
 10
13.74559147687137
 20
14.62026643724772
 42
0.4142135623730951
 10
13.73559147687138
 20
14.61026643724784
 10
13.73559147687138
 20
14.5902664372474
 42
0.4142135623730951
  0
LWPOLYLINE
  5
F0
330
70
100
AcDbEntity
  8
A412_BuitenAfwerk
  6
Continuous
100
AcDbPolyline
 90
        8
 70
     1
 43
0.0
 10
13.47122006678546
 20
19.06088201271598
 10
13.51122006678542
 20
19.06088201271598
 10
13.51122006678542
 20
16.08742507520253
 10
13.66884360783251
 20
15.97447187819836
 10
13.66884360783251
 20
15.54592588785658
 10
13.62884360783232
 20
15.54592588785658
 10
13.62884360783232
 20
15.9539258878566
 10
13.47122006678546
 20
16.06687908486077
  0
LWPOLYLINE
  5
F1
330
70
100
AcDbEntity
  8
A412_BuitenAfwerk
  6
Continuous
100
AcDbPolyline
 90
        8
 70
     1
 43
0.0
 10
13.91791756935731
 20
14.9142664372477
 42
0.3339762451533212
 10
13.95250080228902
 20
14.94026643724777
 10
14.16868213476664
 20
14.94026643724777
 42
0.3339762451533212
 10
14.20326536769812
 20
14.9142664372477
 10
14.24459146852768
 20
14.9142664372477
 10
14.24459146852768
 20
14.69626643724774
 10
13.87659146852775
 20
14.69626643724774
 10
13.87659146852775
 20
14.9142664372477
  0
LWPOLYLINE
  5
F2
330
70
100
AcDbEntity
  8
A412_BuitenAfwerk
  6
Continuous
100
AcDbPolyline
 90
       98
 70
     1
 43
0.0
 10
13.90059146852763
 20
15.00026643724772
 10
13.93059146852738
 20
15.00026643724772
 42
-0.1726500000000001
 10
13.93691146852757
 20
14.9980224372477
 10
13.9587314685275
 20
14.97626643724771
 10
14.16247146852765
 20
14.97626643724771
 10
14.18354253633947
 20
14.99733750505959
 42
-0.1989123673796598
 10
14.19061360415139
 20
15.00026643724772
 10
14.22059146852757
 20
15.00026643724772
 42
-1.0
 10
14.22059146852757
 20
14.99226643724773
 10
14.20380154573172
 20
14.96319482506982
 42
0.1316880554408093
 10
14.20326536769812
 20
14.96119434078179
 10
14.20326536769812
 20
14.95426643724772
 42
0.4142135623730948
 10
14.2072653676978
 20
14.95026643724776
 10
14.29757146852739
 20
14.95026643724776
 42
0.522696451516369
 10
14.30058476667318
 20
14.95964715930444
 10
14.27536279439619
 20
14.99479284142904
 42
-1.187319999999981
 10
14.27288618576335
 20
15.00227780860871
 10
14.32620300501026
 20
15.01409786286484
 42
-0.479656328501865
 10
14.33106876346596
 20
15.01019267883634
 10
14.33106876346596
 20
14.99358393629109
 42
-0.1713859372707279
 10
14.3301817000206
 20
14.99107203939689
 10
14.32308478840969
 20
14.98227699863304
 42
0.2488684056216545
 10
14.32237250594039
 20
14.97859561491998
 10
14.32957146852777
 20
14.95026643724776
 10
14.32957146852777
 20
14.94626643724774
 42
-0.4142135623731006
 10
14.29757146852739
 20
14.9142664372477
 10
14.28059146852752
 20
14.9142664372477
 10
14.28059146852752
 20
14.8662664372477
 10
14.27459146852766
 20
14.86026643724773
 10
14.28059146852752
 20
14.85426643724776
 10
14.28059146852752
 20
14.71026643724775
 42
0.4142135623730949
 10
14.29059146852774
 20
14.70026643724776
 10
14.29259146852769
 20
14.70026643724776
 42
0.4142135623730949
 10
14.30259146852768
 20
14.71026643724775
 10
14.30259146852768
 20
14.7122664372477
 42
-0.4142135623731022
 10
14.32659146852779
 20
14.73626643724776
 10
14.3345914685276
 20
14.73626643724776
 42
-1.001250000000008
 10
14.33457146852765
 20
14.72026643724774
 10
14.32259146852766
 20
14.72026643724774
 10
14.32259146852766
 20
14.69627579322019
 10
14.73059146852756
 20
14.6932664372477
 10
14.73059146852756
 20
14.69626643724774
 10
14.74059146852778
 20
14.69626643724774
 42
0.4142135623730949
 10
14.75059146852754
 20
14.70626643724773
 10
14.75059146852754
 20
14.72026643724774
 10
14.7385914685276
 20
14.72026643724774
 42
-1.000009995326523
 10
14.7385914685276
 20
14.73626643724776
 10
14.79259146852769
 20
14.73626643724776
 42
-1.0
 10
14.79259146852769
 20
14.72026643724774
 10
14.77459146852766
 20
14.72026643724774
 10
14.77459146852766
 20
14.69826643724775
 42
0.4142135623730949
 10
14.78459146852765
 20
14.68826643724776
 10
14.91659146852748
 20
14.68826643724776
 42
0.4142135623730949
 10
14.9265914685277
 20
14.69826643724775
 10
14.9265914685277
 20
14.72026643724774
 10
14.90859146852767
 20
14.72026643724774
 42
-1.0
 10
14.90859146852767
 20
14.73626643724776
 10
14.9405914685276
 20
14.73626643724776
 42
-0.4142135623730949
 10
14.95059146852759
 20
14.72626643724771
 10
14.95059146852759
 20
14.67026643724773
 42
-0.4142135623730872
 10
14.9405914685276
 20
14.66026643724774
 10
13.68059146852738
 20
14.66026643724774
 42
-0.4142135623730951
 10
13.67059146852762
 20
14.67026643724773
 10
13.67059146852762
 20
14.72612618301099
 42
-0.2679989295044321
 10
13.67559307612123
 20
14.73478736499453
 10
13.68415407695534
 20
14.73972794257855
 42
-0.1986737484594166
 10
13.68718587938338
 20
14.74012793046688
 10
13.70059146852759
 20
14.73654643724774
 10
13.70059146852759
 20
14.68826643724776
 10
13.84059146852769
 20
14.68826643724776
 10
13.84059146852769
 20
14.82426643724773
 10
13.84659146852755
 20
14.8302664372477
 10
13.84059146852769
 20
14.83626643724773
 10
13.84059146852769
 20
14.85426643724776
 10
13.84659146852755
 20
14.86026643724773
 10
13.84059146852769
 20
14.8662664372477
 10
13.84059146852769
 20
14.91826643724772
 10
13.80761146852774
 20
14.91826643724772
 10
13.80761146852774
 20
14.90026643724775
 10
13.78761146852776
 20
14.90026643724775
 10
13.78761146852776
 20
14.93826643724776
 42
-0.4142135623730949
 10
13.79161146852766
 20
14.94226643724772
 10
13.79161146852766
 20
14.95026643724776
 10
13.79881043111481
 20
14.97859561491998
 42
0.2488684056216501
 10
13.79809814864552
 20
14.98227699863304
 10
13.79100123703461
 20
14.99107203939689
 42
-0.1713859372707003
 10
13.79011417358924
 20
14.99358393629109
 10
13.79011417358924
 20
15.01019267883634
 42
-0.479656328501878
 10
13.79497993204495
 20
15.01409786286484
 10
13.84829675129185
 20
15.00227780860871
 42
-1.187319999999979
 10
13.84582014265925
 20
14.99479284142904
 10
13.82059817038203
 20
14.95964715930444
 42
0.5226964515163703
 10
13.82361146852781
 20
14.95026643724776
 10
13.91391756935718
 20
14.95026643724776
 42
0.4142135623730948
 10
13.91791756935731
 20
14.95426643724772
 10
13.91791756935731
 20
14.96119434078179
 42
0.1316880554408093
 10
13.91738139132349
 20
14.96319482506982
 10
13.90059146852763
 20
14.99226643724773
 42
-1.0
  0
LWPOLYLINE
  5
F3
330
70
100
AcDbEntity
  8
A412_BuitenAfwerk
  6
Continuous
100
AcDbPolyline
 90
       86
 70
     1
 43
0.0
 10
13.70096360783236
 20
15.65626843724771
 10
13.70096360783236
 20
15.61226843724773
 10
13.76084360783238
 20
15.61226843724773
 10
13.76084360783238
 20
15.79426843724775
 10
13.76684360783247
 20
15.80026843724772
 10
13.76084360783238
 20
15.80626843724775
 10
13.76084360783238
 20
15.98426843724775
 10
13.70084360783244
 20
15.98426843724775
 10
13.70084360783244
 20
15.94428643724774
 10
13.68744071206811
 20
15.94069566144225
 42
-0.1989913458273347
 10
13.68440439775941
 20
15.94109598082497
 10
13.67584066333143
 20
15.94604413859139
 42
-0.2678580823853194
 10
13.67084360783224
 20
15.95470269195329
 10
13.67084360783224
 20
16.0102684372477
 42
-0.4142135623730949
 10
13.68084360783246
 20
16.02026843724775
 10
14.44084360783222
 20
16.02026843724775
 42
-0.4142135623730949
 10
14.45084360783244
 20
16.0102684372477
 10
14.45084360783244
 20
15.95470269195329
 42
-0.2678580823853646
 10
14.44584655233325
 20
15.94604413859139
 10
14.43728281790527
 20
15.94109598082497
 42
-0.1989913458273369
 10
14.43424650359657
 20
15.94069566144225
 10
14.42084360783224
 20
15.94428643724774
 10
14.42084360783224
 20
15.98426843724775
 10
14.36084360783229
 20
15.98426843724775
 10
14.36084360783229
 20
15.80626843724775
 10
14.35484360783221
 20
15.80026843724772
 10
14.36084360783229
 20
15.79426843724775
 10
14.36084360783229
 20
15.61226843724773
 10
14.42084360783224
 20
15.61226843724773
 10
14.42084360783224
 20
15.65626843724771
 42
-0.5773499999998993
 10
14.42684360783232
 20
15.65973243724778
 10
14.44584372573081
 20
15.64876236917689
 42
-0.2679455446303577
 10
14.45084360783244
 20
15.64010218320885
 10
14.45084360783244
 20
15.61226843724773
 42
-0.4142135623730989
 10
14.41884360783251
 20
15.58026843724775
 10
14.36090360783237
 20
15.58026843724775
 42
-0.1461159111212322
 10
14.34335064946163
 20
15.58548605148627
 42
-0.1862339413206946
 10
14.34166930340598
 20
15.58782414315362
 42
0.8799048688817173
 10
14.32986360783252
 20
15.58630958087218
 10
14.32266464524491
 20
15.56193925957547
 42
0.2488684056217153
 10
14.32337692771421
 20
15.55825787586241
 10
14.33047383932535
 20
15.54946283509861
 42
-0.1713859372704524
 10
14.33136090277071
 20
15.54695093820436
 10
14.33136090277071
 20
15.5303421956591
 42
-0.4796563285020187
 10
14.326495144315
 20
15.52643701163066
 10
14.2731783250681
 20
15.53825706588679
 42
-1.187320000000038
 10
14.27565493370093
 20
15.54574203306646
 10
14.30065228254443
 20
15.58061116810125
 42
0.5417492060777514
 10
14.29786360783237
 20
15.59026843724774
 10
14.2075375070026
 20
15.59026843724774
 42
0.4142135623730122
 10
14.20353750700269
 20
15.58626843724772
 10
14.20353750700269
 20
15.57934053371366
 42
0.1316880554406431
 10
14.20407368503652
 20
15.57734004942557
 10
14.22086360783237
 20
15.54826843724771
 42
-1.0
 10
14.22086360783237
 20
15.54026843724773
 10
14.1908537445604
 20
15.54026843724773
 42
-0.1989863905089075
 10
14.1837806630599
 20
15.54319938369804
 10
14.1627236078325
 20
15.56426843724773
 10
13.95896360783263
 20
15.56426843724773
 10
13.93714360783224
 20
15.54251243724775
 42
-0.1726499999999849
 10
13.93082360783228
 20
15.54026843724773
 10
13.90082360783231
 20
15.54026843724773
 42
-1.0
 10
13.90082360783231
 20
15.54826843724771
 10
13.91761353062816
 20
15.57734004942557
 42
0.1316880554408013
 10
13.91814970866198
 20
15.57934053371366
 10
13.91814970866198
 20
15.58626843724772
 42
0.4142135623729527
 10
13.91414970866208
 20
15.59026843724774
 10
13.82384360783248
 20
15.59026843724774
 42
0.5226964515163343
 10
13.8208303096867
 20
15.58088771519107
 10
13.84605228196415
 20
15.54574203306646
 42
-1.187320000000038
 10
13.84852889059652
 20
15.53825706588679
 10
13.79521207134962
 20
15.52643701163066
 42
-0.4796563285019897
 10
13.79034631289391
 20
15.5303421956591
 10
13.79034631289391
 20
15.54695093820436
 42
-0.1713859372708588
 10
13.79123337633928
 20
15.54946283509861
 10
13.79833028795019
 20
15.55825787586241
 42
0.2488684056216471
 10
13.79904257041949
 20
15.56193925957547
 10
13.79184360783256
 20
15.58630958087218
 42
0.8799048688818961
 10
13.78003791225842
 20
15.58782414315362
 42
-0.186233941320715
 10
13.778356566203
 20
15.58548605148627
 42
-0.1461159111211694
 10
13.76080360783226
 20
15.58026843724775
 10
13.70292101219638
 20
15.58034548562796
 42
-0.4138237418214432
 10
13.67096360783239
 20
15.61234545727814
 10
13.67096360783239
 20
15.64010218320885
 42
-0.2679455446303349
 10
13.67596348993379
 20
15.64876236917689
 10
13.69496360783228
 20
15.65973243724778
 42
-0.5773500000000542
  0
LWPOLYLINE
  5
F4
330
70
100
AcDbEntity
  8
A412_BuitenAfwerk
  6
Continuous
100
AcDbPolyline
 90
       31
 70
     1
 43
0.0
 10
14.07284360783228
 20
15.60626843724771
 10
14.07884360783237
 20
15.60026843724773
 10
14.08484360783245
 20
15.60626843724771
 10
14.09084360783231
 20
15.60026843724773
 10
14.0968436078324
 20
15.60626843724771
 10
14.10284360783248
 20
15.60026843724773
 10
14.10884360783234
 20
15.60626843724771
 10
14.11484360783243
 20
15.60026843724773
 10
14.12084360783228
 20
15.60626843724771
 10
14.12684360783237
 20
15.60026843724773
 10
14.16895427407144
 20
15.60026843724773
 42
-0.3323833953710926
 10
14.20353750700269
 20
15.62633266342152
 10
14.32484360783223
 20
15.62626843724774
 10
14.32484360783223
 20
15.98426843724775
 10
13.79684360783244
 20
15.98426843724775
 10
13.79684360783244
 20
15.62626843724774
 10
13.91814970866198
 20
15.62633153303602
 42
-0.332386047070302
 10
13.95273294159369
 20
15.60026843724773
 10
13.99484360783231
 20
15.60026843724773
 10
14.00084360783239
 20
15.60626843724771
 10
14.00684360783225
 20
15.60026843724773
 10
14.01284360783234
 20
15.60626843724771
 10
14.01884360783242
 20
15.60026843724773
 10
14.02484360783228
 20
15.60626843724771
 10
14.03084360783237
 20
15.60026843724773
 10
14.03684360783222
 20
15.60626843724771
 10
14.04284360783231
 20
15.60026843724773
 10
14.04884360783239
 20
15.60626843724771
 10
14.05484360783225
 20
15.60026843724773
 10
14.06084360783234
 20
15.60626843724771
 10
14.06684360783242
 20
15.60026843724773
  0
LWPOLYLINE
  5
F5
330
70
100
AcDbEntity
  8
A20-_Hatch
100
AcDbPolyline
 90
        8
 70
     1
 43
0.0
 10
14.01445294365612
 20
15.32534145422681
 42
0.4140821492233048
 10
13.99445294566931
 20
15.34533248035905
 10
13.82641729095621
 20
15.34533248035905
 42
0.4142302067982492
 10
13.80641729098852
 20
15.32533134381327
 10
13.80647912553013
 20
15.2153223373686
 42
0.4140650295106447
 10
13.82647912295829
 20
15.19533248035907
 10
13.99450230194702
 20
15.19533248035907
 42
0.4143449877353011
 10
14.01450229993384
 20
15.21534145422686
  0
LWPOLYLINE
  5
F6
330
70
100
AcDbEntity
  8
A20-_Hatch
100
AcDbPolyline
 90
       52
 70
     1
 43
0.0
 10
13.88391750934602
 20
15.58537615951894
 10
13.88391743102829
 20
15.58107605719516
 42
-1.696128220674461
 10
13.86291735756231
 20
15.58107563588589
 10
13.8629175093456
 20
15.58537262328576
 42
0.3637987331447698
 10
13.85961448827788
 20
15.58931143279727
 10
13.85421750934574
 20
15.59026643724775
 10
13.83691732535726
 20
15.59026643724775
 42
0.4142139999999471
 10
13.83091756935755
 20
15.58426637724773
 10
13.83091756935755
 20
15.57653963324776
 42
0.1316439999998153
 10
13.83145345735738
 20
15.57453981724774
 10
13.84942059220907
 20
15.54341859209819
 42
-0.4662989413617994
 10
13.84418056139611
 20
15.52902185386819
 10
13.83004440473951
 20
15.5238765301558
 42
0.3151723187605119
 10
13.7905662655121
 20
15.46752212968943
 10
13.7905662655121
 20
15.07301074480608
 42
0.3151723187605175
 10
13.83004440473951
 20
15.01665634433965
 10
13.84418056139611
 20
15.01151102062727
 42
-0.4662989413617994
 10
13.84942059220907
 20
14.99711428239732
 10
13.83145345735738
 20
14.96599305724771
 42
0.1316439999999635
 10
13.83091756935755
 20
14.96399324124775
 10
13.83091756935755
 20
14.95626649724772
 42
0.4142139999999471
 10
13.83691732535726
 20
14.95026643724776
 10
13.85421750934574
 20
14.95026643724776
 10
13.85961448827788
 20
14.95122144169818
 42
0.3637987331449117
 10
13.8629175093456
 20
14.95516025120969
 10
13.86291735756231
 20
14.95945723860956
 42
-1.696128220674415
 10
13.88391743102829
 20
14.95945681730035
 10
13.88391750934602
 20
14.95515671497651
 42
0.3639786597054934
 10
13.88722303386453
 20
14.95121746329562
 10
13.89261750934588
 20
14.95026643724776
 10
13.90991750935745
 20
14.95026643724776
 42
0.4142139999999987
 10
13.91591756935736
 20
14.95626649724772
 10
13.91591756935736
 20
14.96399324124775
 42
0.1316409999999019
 10
13.91538198535727
 20
14.96599336524775
 10
13.8978545213572
 20
14.99635194524774
 42
-0.1273370000001107
 10
13.89731802135748
 20
14.99828401324771
 10
13.89731802135748
 20
14.99919537369732
 42
-0.3634311338737312
 10
13.9039138340886
 20
15.00707117575894
 10
13.98110737282332
 20
15.02083411488439
 42
0.3634311338737399
 10
14.03057596830604
 20
15.07990263034651
 10
14.03057596830604
 20
15.460630244149
 42
0.3634311338737399
 10
13.98110737282332
 20
15.51969875961106
 10
13.9039138340886
 20
15.53346169873651
 42
-0.3634311338738083
 10
13.89731802135748
 20
15.54133750079808
 10
13.89731802135748
 20
15.54224886124774
 42
-0.1273370000006509
 10
13.8978545213572
 20
15.54418092924771
 10
13.91538198535727
 20
15.57453950924776
 42
0.1316409999996122
 10
13.91591756935736
 20
15.57653963324776
 10
13.91591756935736
 20
15.58426637724773
 42
0.4142139999999603
 10
13.90991750935745
 20
15.59026643724775
 10
13.89261750934588
 20
15.59026643724775
 10
13.88722303386453
 20
15.58931541119989
 42
0.3639786597054707
  0
LWPOLYLINE
  5
F7
330
70
100
AcDbEntity
  8
A20-_Hatch
100
AcDbPolyline
 90
       10
 70
     1
 43
0.0
 10
13.88202876597347
 20
15.51126537812433
 10
13.97987634843412
 20
15.49813436433527
 42
-0.375764110308112
 10
14.01455609279833
 20
15.45847507911588
 10
14.01452922153976
 20
15.3852447179176
 42
-0.4140821492233167
 10
13.99452922355294
 20
15.36525369178537
 10
13.82650955193344
 20
15.36525369178537
 42
-0.4143621108374603
 10
13.80650955450528
 20
15.3852638347758
 10
13.80653665013415
 20
15.46251499195262
 42
-0.3380566542851482
 10
13.83600374028719
 20
15.50108932508755
 10
13.86511679025989
 20
15.50990434358431
 42
-0.1072615994035174
  0
LWPOLYLINE
  5
F8
330
70
100
AcDbEntity
  8
A20-_Hatch
100
AcDbPolyline
 90
       10
 70
     1
 43
0.0
 10
13.86511679025989
 20
15.03068182856009
 42
0.1072615994035973
 10
13.88202876597347
 20
15.02932079402006
 10
13.97987634843412
 20
15.04245180780919
 42
0.375764110308112
 10
14.01455609279833
 20
15.08211109302851
 10
14.01452922153976
 20
15.1553414542268
 42
0.4140821492233167
 10
13.99452922355294
 20
15.17533248035909
 10
13.82650955193344
 20
15.17533248035909
 42
0.4143621108374603
 10
13.80650955450528
 20
15.15532233736866
 10
13.80653665013415
 20
15.07807118019184
 42
0.3380566542851478
 10
13.83600374028719
 20
15.03949684705679
  0
LWPOLYLINE
  5
F9
330
70
100
AcDbEntity
  8
A20-_Hatch
100
AcDbPolyline
 90
       10
 70
     1
 43
0.0
 10
14.23915417108173
 20
15.51126537812433
 10
14.14130658862109
 20
15.49813436433527
 42
0.3757641103081239
 10
14.10662684425688
 20
15.45847507911588
 10
14.10665371551545
 20
15.3852447179176
 42
0.4140821492233119
 10
14.12665371350226
 20
15.36525369178537
 10
14.29467338512177
 20
15.36525369178537
 42
0.4143621108374436
 10
14.3146733825497
 20
15.3852638347758
 10
14.31464628692106
 20
15.46251499195262
 42
0.3380566542851486
 10
14.28517919676801
 20
15.50108932508755
 10
14.25606614679509
 20
15.50990434358431
 42
0.107261599403561
  0
LWPOLYLINE
  5
FA
330
70
100
AcDbEntity
  8
A20-_Hatch
100
AcDbPolyline
 90
       10
 70
     1
 43
0.0
 10
14.23915417108173
 20
15.02932079402006
 42
0.1072615994036058
 10
14.25606614679509
 20
15.03068182856009
 10
14.28517919676801
 20
15.03949684705679
 42
0.3380566542851488
 10
14.31464628692106
 20
15.07807118019184
 10
14.3146733825497
 20
15.15532233736866
 42
0.4143621108374319
 10
14.29467338512177
 20
15.17533248035909
 10
14.12665371350226
 20
15.17533248035909
 42
0.414082149223312
 10
14.10665371551545
 20
15.1553414542268
 10
14.10662684425688
 20
15.08211109302851
 42
0.3757641103081239
 10
14.14130658862109
 20
15.04245180780919
  0
LWPOLYLINE
  5
FB
330
70
100
AcDbEntity
  8
A20-_Hatch
100
AcDbPolyline
 90
       66
 70
     1
 43
0.0
 10
14.26156844877732
 20
14.95122144169818
 10
14.26696542770946
 20
14.95026643724776
 10
14.28426561169795
 20
14.95026643724776
 42
0.4142139999999315
 10
14.29026536769766
 20
14.95626649724772
 10
14.29026536769766
 20
14.96399324124775
 42
0.1316439999999496
 10
14.2897294796976
 20
14.96599305724771
 10
14.27176234484614
 20
14.99711428239732
 42
-0.4662989413617934
 10
14.27700237565909
 20
15.01151102062727
 10
14.2911385323157
 20
15.01665634433965
 42
0.3151723187605133
 10
14.33061667154311
 20
15.07301074480608
 10
14.33070936978402
 20
15.34046653796952
 42
-0.4141172840432289
 10
14.34070936924354
 20
15.35046325070988
 10
14.38869936821265
 20
15.35046325070988
 10
14.38869936821265
 20
15.32738735233278
 42
0.577330883222199
 10
14.39469916674261
 20
15.32392313440675
 10
14.41669916674277
 20
15.33662313440675
 42
0.2679647759855859
 10
14.41869936821263
 20
15.34008735233277
 10
14.41869936821263
 20
15.3808191490869
 42
0.2679647759855101
 10
14.41669916674277
 20
15.38428336701298
 10
14.39469916674261
 20
15.39698336701298
 42
0.577330883222165
 10
14.38869936821265
 20
15.3935191490869
 10
14.38869936821265
 20
15.37046325070986
 10
14.34076398046181
 20
15.37046325070986
 42
-0.414344987735263
 10
14.33076398146863
 20
15.38046773764375
 10
14.33061667154311
 20
15.46752212968943
 42
0.3151723187605099
 10
14.2911385323157
 20
15.5238765301558
 10
14.27700237565909
 20
15.52902185386819
 42
-0.4662989413617934
 10
14.27176234484614
 20
15.54341859209819
 10
14.2897294796976
 20
15.57453981724774
 42
0.1316439999999496
 10
14.29026536769766
 20
15.57653963324776
 10
14.29026536769766
 20
15.58426637724773
 42
0.4142139999999315
 10
14.28426561169795
 20
15.59026643724775
 10
14.26696542770946
 20
15.59026643724775
 10
14.26156844877732
 20
15.58931143279727
 42
0.3637987331448546
 10
14.25826542770937
 20
15.58537262328576
 10
14.2582655794929
 20
15.58107563588589
 42
-1.696128220674385
 10
14.23726550602691
 20
15.58107605719516
 10
14.23726542770919
 20
15.58537615951894
 42
0.363978659705497
 10
14.23395990319068
 20
15.58931541119989
 10
14.22856542770932
 20
15.59026643724775
 10
14.21126542769775
 20
15.59026643724775
 42
0.4142139999998373
 10
14.20526536769784
 20
15.58426637724773
 10
14.20526536769784
 20
15.57653963324776
 42
0.1316409999998821
 10
14.20580095169771
 20
15.57453950924776
 10
14.223328415698
 20
15.54418092924771
 42
-0.1273370000000371
 10
14.22386491569773
 20
15.54224886124774
 10
14.22386491569773
 20
15.54133750079808
 42
-0.3634311338737231
 10
14.21726910296661
 20
15.53346169873651
 10
14.14007556423189
 20
15.51969875961106
 42
0.3634311338737346
 10
14.09060696874894
 20
15.460630244149
 10
14.09060696874894
 20
15.07990263034651
 42
0.363431133873735
 10
14.14007556423189
 20
15.02083411488439
 10
14.21726910296661
 20
15.00707117575894
 42
-0.3634311338737062
 10
14.22386491569773
 20
14.99919537369732
 10
14.22386491569773
 20
14.99828401324771
 42
-0.1273370000000371
 10
14.223328415698
 20
14.99635194524774
 10
14.20580095169771
 20
14.96599336524775
 42
0.131640999999888
 10
14.20526536769784
 20
14.96399324124775
 10
14.20526536769784
 20
14.95626649724772
 42
0.4142139999998566
 10
14.21126542769775
 20
14.95026643724776
 10
14.22856542770932
 20
14.95026643724776
 10
14.23395990319068
 20
14.95121746329562
 42
0.3639786597055359
 10
14.23726542770919
 20
14.95515671497651
 10
14.23726550602691
 20
14.95945681730035
 42
-1.696128220674393
 10
14.2582655794929
 20
14.95945723860956
 10
14.25826542770937
 20
14.95516025120969
 42
0.3637987331448067
  0
LWPOLYLINE
  5
FC
330
70
100
AcDbEntity
  8
A20-_Hatch
100
AcDbPolyline
 90
        8
 70
     1
 43
0.0
 10
14.1267299913859
 20
15.34533248035905
 42
0.4140821492233239
 10
14.10672999339908
 20
15.32534145422681
 10
14.10668063712137
 20
15.21534145422686
 42
0.4143449877353366
 10
14.12668063510819
 20
15.19533248035907
 10
14.29470381409692
 20
15.19533248035907
 42
0.4140650295106209
 10
14.31470381152485
 20
15.2153223373686
 10
14.31476564606669
 20
15.32533134381327
 42
0.4142302067982492
 10
14.29476564609899
 20
15.34533248035905
  0
LWPOLYLINE
  5
FD
330
70
100
AcDbEntity
  8
A20-_Hatch
100
AcDbPolyline
 90
        8
 70
     1
 43
0.0
 10
14.35793103173091
 20
15.44981756543859
 42
0.4142135623741771
 10
14.36393103387763
 20
15.44381756758446
 10
14.40915674654752
 20
15.44381758376312
 42
0.5942451481780568
 10
14.42091370278467
 20
15.46541849569837
 10
14.38881054857984
 20
15.51507510836831
 42
0.2545122073188498
 10
14.38377184875753
 20
15.51781757468245
 10
14.36393100740315
 20
15.51781756758385
 42
0.4142135627253337
 10
14.35793100955084
 20
15.51181756543906
  0
LWPOLYLINE
  5
FE
330
70
100
AcDbEntity
  8
A20-_Hatch
100
AcDbPolyline
 90
       57
 70
     1
 43
0.0
 10
14.47753834566811
 20
15.36155191916799
 10
14.6045768559004
 20
15.29561745678597
 10
14.66569660437381
 20
15.29134226813664
 42
0.0012487231709269
 10
14.70113256178047
 20
15.28955987730461
 42
0.015048664428918
 10
14.71639176826011
 20
15.29052099509198
 10
14.71839859551392
 20
15.2912373768487
 42
1.125984837494698
 10
14.71610517850968
 20
15.29481960738462
 10
14.70449532601378
 20
15.29504270859644
 42
-0.2148077862672961
 10
14.70293082924786
 20
15.29554340881879
 10
14.65824956880124
 20
15.30647649562456
 42
-0.826277004580436
 10
14.6695338780346
 20
15.32500094936722
 10
14.74023592585786
 20
15.30556899075139
 42
-0.2190834083342839
 10
14.74163438064351
 20
15.30253057628022
 10
14.74163438064351
 20
15.27953057628019
 42
-0.293679112511154
 10
14.73929533562978
 20
15.27589172638858
 10
14.65057686015893
 20
15.26361745678599
 42
-0.0428478007820089
 10
14.62057686015896
 20
15.17521547671896
 42
-0.0340104092926611
 10
14.60116422317333
 20
15.13572347377686
 42
-0.069288293633711
 10
14.50864953798941
 20
15.02398600808254
 42
-0.0756490364134337
 10
14.44133786506268
 20
14.98864460181806
 42
-0.0950387091594871
 10
14.33678578335843
 20
14.98522781870377
 42
-0.3489801764080979
 10
14.33316428408057
 20
14.98864251280184
 10
14.32712390949928
 20
15.03052055222832
 42
-0.3266913860723124
 10
14.32933946899197
 20
15.03469163529866
 10
14.39137693849625
 20
15.06473584526418
 10
14.39137688324035
 20
15.21919036315921
 10
14.39992644742256
 20
15.24408666006735
 42
0.2886508641012913
 10
14.39943792562758
 20
15.24616152839638
 42
0.1252191331507359
 10
14.38240240510095
 20
15.25610621698359
 10
14.33561918560804
 20
15.26952108930413
 42
-0.3348129275644141
 10
14.3325768637892
 20
15.27356167595104
 10
14.33257684956038
 20
15.31333753491964
 42
-0.3152987890425041
 10
14.33534036354672
 20
15.31728424491524
 10
14.38323798878218
 20
15.33471757419931
 10
14.38717684716971
 20
15.32001757560641
 10
14.40730766440856
 20
15.32001758280984
 42
0.0939811945558864
 10
14.41427774947988
 20
15.32155356893605
 42
0.1504437171173338
 10
14.42287684401344
 20
15.32884012527643
 10
14.42287682328128
 20
15.38679505148133
 42
0.2124322539782524
 10
14.40730763736314
 20
15.39561758280911
 10
14.38717682012452
 20
15.39561757560767
 10
14.38323797225371
 20
15.38091757419818
 10
14.33534033454452
 20
15.39835086921101
 42
-0.3152987891363784
 10
14.33257681773534
 20
15.40229757722932
 10
14.3325767585884
 20
15.56762843613614
 42
-0.4103290262853359
 10
14.34244395064706
 20
15.57762755777725
 10
14.38306941806058
 20
15.57816714383466
 42
-0.8898838111831384
 10
14.38496466627612
 20
15.5615888093443
 10
14.36928696123937
 20
15.55791422046553
 42
-0.2453926839913023
 10
14.36363713366245
 20
15.55936316778758
 42
1.618160449200368
 10
14.35853298529605
 20
15.5516874079729
 42
-0.0968971169189063
 10
14.36990180229145
 20
15.55581756942712
 10
14.38397830924691
 20
15.55581757446254
 42
-0.2679491924654698
 10
14.40216484648249
 20
15.54531758096954
 10
14.4495561266117
 20
15.47201355525544
 42
-0.1444708862409355
 10
14.45596480876361
 20
15.45029667832222
 10
14.45596482780956
 20
15.39705492946097
 42
0.2800054432855154
  0
LWPOLYLINE
  5
FF
330
70
100
AcDbEntity
  8
A20-_Hatch
100
AcDbPolyline
 90
        6
 70
     1
 43
0.0
 10
14.60080001240271
 20
15.21399815854897
 10
14.50429819025066
 20
15.23429271980939
 42
0.7104308052492207
 10
14.50039686636069
 20
15.22782390308913
 10
14.56311432014991
 20
15.15224887847011
 42
0.5195992589831125
 10
14.57610457125884
 20
15.15388144001986
 42
0.0443207721574322
 10
14.60369387264177
 20
15.20860613438339
 42
0.4652615619036026
  0
LWPOLYLINE
  5
100
330
70
100
AcDbEntity
  8
A20-_Hatch
100
AcDbPolyline
 90
       10
 70
     1
 43
0.0
 10
14.42289294846228
 20
15.23091321598906
 42
-0.2515532883168788
 10
14.42983564625456
 20
15.23734384929759
 10
14.44743587998414
 20
15.24191763157159
 42
-0.2909007009161798
 10
14.45764634839065
 20
15.23862520380243
 10
14.52835388553285
 20
15.15342206596045
 42
-0.635159547999783
 10
14.52527576554962
 20
15.14686762501213
 10
14.42737690911372
 20
15.14686758998948
 42
-0.4142135624147342
 10
14.41737690553509
 20
15.15686758641107
 10
14.41737688538956
 20
15.21318126361007
 42
-0.0828864622728723
 10
14.41791902272666
 20
15.21642916402123
  0
LWPOLYLINE
  5
101
330
70
100
AcDbEntity
  8
A20-_Hatch
100
AcDbPolyline
 90
        6
 70
     1
 43
0.0
 10
14.41737692199194
 20
15.11086758641187
 10
14.4173769530289
 20
15.02411388327454
 42
0.5396444644077511
 10
14.43135053170613
 20
15.01493724953502
 42
0.12879862179042
 10
14.54214754943496
 20
15.10495756943481
 42
0.6141726973694864
 10
14.534080873319
 20
15.1208676281621
 10
14.42737691841421
 20
15.12086758998947
 42
0.4142135623785894
  0
LWPOLYLINE
  5
102
330
70
100
AcDbEntity
  8
A20-_Hatch
100
AcDbPolyline
 90
        6
 70
     1
 43
0.0
 10
14.47805366248121
 20
15.26638073781009
 10
14.6002869813683
 20
15.24067478197526
 42
0.8449816655425196
 10
14.60571075155258
 20
15.2544565367595
 10
14.48094223589646
 20
15.32968484129049
 42
0.583695118038547
 10
14.47487684493671
 20
15.3262593238133
 10
14.47487686495719
 20
15.27029511215113
 42
0.3547256684050915
  0
LWPOLYLINE
  5
103
330
70
100
AcDbEntity
  8
A412_BuitenAfwerk
  6
Continuous
100
AcDbPolyline
 90
       20
 70
     1
 43
0.0
 10
14.89663146852763
 20
14.87574690580743
 10
14.89263146852749
 20
14.87574690580743
 10
14.89263146852749
 20
14.91822690580739
 10
14.93563146852739
 20
14.91822690580739
 10
14.93563146852739
 20
14.91422690580742
 10
14.96563146852782
 20
14.91422690580742
 10
14.96563146852782
 20
14.91822690580739
 10
15.00863146852771
 20
14.91822690580739
 10
15.00863146852771
 20
14.87574690580743
 10
15.0046314685278
 20
14.87574690580743
 10
15.0046314685278
 20
14.8457469058074
 10
15.00863146852771
 20
14.8457469058074
 10
15.00863146852771
 20
14.7782269058074
 10
14.96563146852782
 20
14.7782269058074
 10
14.96563146852782
 20
14.78222690580736
 10
14.93563146852739
 20
14.78222690580736
 10
14.93563146852739
 20
14.7782269058074
 10
14.89263146852749
 20
14.7782269058074
 10
14.89263146852749
 20
14.8457469058074
 10
14.89663146852763
 20
14.8457469058074
  0
LWPOLYLINE
  5
104
330
70
100
AcDbEntity
  8
A412_BuitenAfwerk
  6
Continuous
100
AcDbPolyline
 90
       87
 70
     1
 43
0.0
 10
15.05761146852774
 20
14.91822690580739
 42
0.414213562373095
 10
15.08961146852766
 20
14.95022690580742
 10
15.08241250594028
 20
14.97855608347964
 42
-0.2488684056216492
 10
15.08312478840958
 20
14.98223746719276
 10
15.09022170002049
 20
14.99103250795656
 42
0.1713859372707134
 10
15.09110876346585
 20
14.99354440485075
 10
15.09110876346585
 20
15.01015314739601
 42
0.4796563285018807
 10
15.08624300501014
 20
15.01405833142451
 10
15.03292618576324
 20
15.00223827716837
 42
1.187319999999935
 10
15.03540279439607
 20
14.99475330998871
 10
15.06062476667307
 20
14.9596076278641
 42
-0.522696451516347
 10
15.05761146852774
 20
14.95022690580742
 10
14.96730536769814
 20
14.95022690580742
 42
-0.4142135623730948
 10
14.96330536769801
 20
14.95422690580739
 10
14.96330536769801
 20
14.96115480934145
 42
-0.1316880554408082
 10
14.96384154573206
 20
14.96315529362954
 10
14.98063146852746
 20
14.9922269058074
 42
1.000000000000004
 10
14.98063146852746
 20
15.00022690580744
 10
14.9566314685278
 20
15.00022690580744
 42
-1.0
 10
14.9446314685274
 20
15.00022690580744
 10
14.92063146852774
 20
15.00022690580744
 42
1.000000000000003
 10
14.92063146852774
 20
14.9922269058074
 10
14.93742139132337
 20
14.96315529362954
 42
-0.1316880554408095
 10
14.93795756935719
 20
14.96115480934145
 10
14.93795756935719
 20
14.95422690580739
 42
-0.4142135623730949
 10
14.93395756935706
 20
14.95022690580742
 10
14.84365146852747
 20
14.95022690580742
 42
-0.5226964515163499
 10
14.84063817038213
 20
14.9596076278641
 10
14.86586014265913
 20
14.99475330998871
 42
1.187319999999932
 10
14.86833675129196
 20
15.00223827716837
 10
14.81501993204506
 20
15.01405833142451
 42
0.479656328501874
 10
14.81015417358935
 20
15.01015314739601
 10
14.81015417358935
 20
14.99354440485075
 42
0.1713859372707124
 10
14.81104123703471
 20
14.99103250795656
 10
14.81813814864563
 20
14.98223746719276
 42
-0.2488684056216521
 10
14.81885043111492
 20
14.97855608347964
 10
14.81165146852754
 20
14.95022690580742
 10
14.81165146852754
 20
14.94118708189222
 42
-0.1316267298107932
 10
14.81111577275578
 20
14.9391874328694
 10
14.80017146852765
 20
14.92022690580739
 42
0.6631699999999984
 10
14.80461146852758
 20
14.9143469058074
 10
14.81933533808023
 20
14.91810279112076
 42
-0.0625217220336345
 10
14.82032403067046
 20
14.91822690580739
 10
14.86063146852757
 20
14.91822690580739
 10
14.86063146852757
 20
14.86622690580742
 10
14.86663146852766
 20
14.86022690580739
 10
14.86063146852757
 20
14.85422690580742
 10
14.86063146852757
 20
14.78622690580744
 42
0.4142135623730949
 10
14.90063146852753
 20
14.74622690580742
 10
15.04063146852786
 20
14.74622690580742
 42
-0.4142135623730949
 10
15.05063146852762
 20
14.73622690580743
 10
15.05063146852762
 20
14.69022690580743
 42
0.4142135623730952
 10
15.0806314685276
 20
14.6602269058074
 10
15.70063146852772
 20
14.6602269058074
 42
0.4142135623730949
 10
15.71063146852748
 20
14.6702269058074
 10
15.71063146852748
 20
14.72622690580738
 42
0.4142135623730949
 10
15.70063146852772
 20
14.73622690580743
 10
15.66863146852756
 20
14.73622690580743
 42
1.0
 10
15.66863146852756
 20
14.72022690580741
 10
15.68663146852759
 20
14.72022690580741
 10
15.68663146852759
 20
14.69822690580741
 42
-0.4142135623730949
 10
15.67663146852737
 20
14.68822690580742
 10
15.54463146852754
 20
14.68822690580742
 42
-0.4142135623730949
 10
15.53463146852755
 20
14.69822690580741
 10
15.53463146852755
 20
14.72022690580741
 10
15.55263146852758
 20
14.72022690580741
 42
1.0
 10
15.55263146852758
 20
14.73622690580743
 10
15.49863146852749
 20
14.73622690580743
 42
1.0
 10
15.49863146852749
 20
14.72022690580741
 10
15.51063146852743
 20
14.72022690580741
 10
15.51063146852743
 20
14.70622690580739
 42
-0.4142135623730949
 10
15.50063146852767
 20
14.69622690580741
 10
15.49063146852768
 20
14.69622690580741
 10
15.49063146852768
 20
14.69322690580742
 10
15.08660196584014
 20
14.69620697589801
 42
-0.4120549048147405
 10
15.08263146852755
 20
14.70020686709546
 10
15.08263146852755
 20
14.72022690580741
 10
15.09461146852754
 20
14.72022690580741
 42
1.001250000000008
 10
15.09463146852749
 20
14.73622690580743
 10
15.08263146852755
 20
14.73622690580743
 10
15.08263146852755
 20
14.7422269058074
 42
0.4142135623730949
 10
15.04263146852736
 20
14.78222690580736
 10
15.04063146852786
 20
14.78222690580736
 10
15.04063146852786
 20
14.85422690580742
 10
15.03463146852755
 20
14.86022690580739
 10
15.04063146852786
 20
14.86622690580742
 10
15.04063146852786
 20
14.91822690580739
  0
LWPOLYLINE
  5
105
330
70
100
AcDbEntity
  8
A412_BuitenAfwerk
  6
Continuous
100
AcDbPolyline
 90
      102
 70
     1
 43
0.0
 10
14.95663146852735
 20
15.5402269058074
 42
1.000000000000002
 10
14.9446314685274
 20
15.5402269058074
 10
14.92061146852757
 20
15.5402269058074
 42
-1.0
 10
14.92061146852757
 20
15.54822690580744
 10
14.93740139132342
 20
15.5772985179853
 42
0.1316880554408076
 10
14.93793756935701
 20
15.57929900227333
 10
14.93793756935701
 20
15.58622690580745
 42
0.4142135623730951
 10
14.93393756935711
 20
15.59022690580741
 10
14.84363146852774
 20
15.59022690580741
 42
0.522696451516376
 10
14.84061817038196
 20
15.58084618375074
 10
14.86584014265895
 20
15.54570050162613
 42
-1.18731999999996
 10
14.86831675129178
 20
15.53821553444646
 10
14.81499993204488
 20
15.52639548019033
 42
-0.4796563285018593
 10
14.81013417358918
 20
15.53030066421882
 10
14.81013417358918
 20
15.54690940676408
 42
-0.1713859372706848
 10
14.81102123703454
 20
15.54942130365828
 10
14.81811814864545
 20
15.55821634442208
 42
0.2488684056216704
 10
14.81883043111475
 20
15.56189772813513
 10
14.81163146852736
 20
15.58626804943191
 42
0.8146997295858724
 10
14.80012166959932
 20
15.58864336325718
 42
-0.2994379374744148
 10
14.79644847031363
 20
15.58622690580745
 10
14.72063146852724
 20
15.58622690580745
 42
-0.4142135623730952
 10
14.6906314685275
 20
15.61622690580742
 10
14.6906314685275
 20
15.65622890580738
 42
-0.4142135623730949
 10
14.70063146852772
 20
15.66622890580743
 10
14.71063146852748
 20
15.66622890580743
 42
-0.4142135623730949
 10
14.72063146852724
 20
15.65622890580738
 10
14.72063146852724
 20
15.61622690580742
 10
14.78063146852764
 20
15.61622690580742
 10
14.78063146852764
 20
15.79422890580741
 10
14.78663146852727
 20
15.80022890580738
 10
14.78063146852764
 20
15.80622890580741
 10
14.78063146852764
 20
16.02022890580741
 10
14.72063146852724
 20
16.02022890580741
 10
14.72063146852724
 20
15.98022890580745
 42
-0.4142135623730949
 10
14.71063146852748
 20
15.97022890580746
 10
14.70063146852772
 20
15.97022890580746
 42
-0.4142135623730949
 10
14.6906314685275
 20
15.98022890580745
 10
14.6906314685275
 20
16.02022890580741
 42
-0.4142135623730951
 10
14.72063146852724
 20
16.05022890580739
 10
14.78063146852764
 20
16.05022890580739
 10
14.78063146852764
 20
16.16422890580742
 10
14.50063146852767
 20
16.16822890580744
 10
14.50063146852767
 20
16.14422890580744
 42
-0.4142135623730958
 10
14.47663146852756
 20
16.12022890580744
 10
14.46863146852775
 20
16.12022890580744
 42
-0.4142135623730927
 10
14.46263146852743
 20
16.12622890580741
 10
14.46263146852743
 20
16.13022890580743
 42
-0.4142135623730927
 10
14.46863146852775
 20
16.1362289058074
 10
14.48063146852746
 20
16.1362289058074
 10
14.48063146852746
 20
16.17222890580746
 10
14.38463146852768
 20
16.17222890580746
 42
0.4142135623730949
 10
14.37463146852747
 20
16.16222890580746
 10
14.37463146852747
 20
16.1362289058074
 10
14.38663146852741
 20
16.1362289058074
 42
-0.414213562373093
 10
14.3926314685275
 20
16.13022890580743
 10
14.3926314685275
 20
16.12622890580741
 42
-0.414213562373093
 10
14.38663146852741
 20
16.12022890580744
 10
14.37463146852747
 20
16.12022890580744
 42
-0.4142135623730958
 10
14.35063146852758
 20
16.14422890580744
 10
14.35063146852758
 20
16.19022890580743
 42
-0.4142135623730949
 10
14.36063146852757
 20
16.20022890580742
 10
15.20063146852772
 20
16.20022890580742
 42
-0.4142135623730949
 10
15.21063146852748
 20
16.19022890580743
 10
15.21063146852748
 20
15.95466116000216
 42
-0.2679050208224984
 10
15.20563289612437
 20
15.94600173034456
 10
15.19707007153647
 20
15.94105609894728
 42
-0.1989458163847127
 10
15.19403436398966
 20
15.94065613008285
 10
15.18063146852751
 20
15.9442469058074
 10
15.18063146852751
 20
15.98422890580741
 10
15.12063146852733
 20
15.98422890580741
 10
15.12063146852733
 20
15.80622890580741
 10
15.11463146852747
 20
15.80022890580738
 10
15.12063146852733
 20
15.79422890580741
 10
15.12063146852733
 20
15.6122269058074
 10
15.18063146852751
 20
15.6122269058074
 10
15.18063146852751
 20
15.65622890580738
 42
-0.5773500000000118
 10
15.18663146852737
 20
15.65969290580745
 10
15.20563158642608
 20
15.64872283773655
 42
-0.2679455446303701
 10
15.21063146852748
 20
15.64006265176852
 10
15.21063146852748
 20
15.6122269058074
 42
-0.4142135623730939
 10
15.17863146852755
 20
15.58022690580742
 10
15.12067146852746
 20
15.58022690580742
 42
-0.1461159111212146
 10
15.10311851015672
 20
15.58544452004594
 42
-0.1862339413206962
 10
15.1014371641013
 20
15.58778261171329
 42
0.8799048688818364
 10
15.08963146852761
 20
15.58626804943191
 10
15.08243250594023
 20
15.56189772813513
 42
0.2488684056216014
 10
15.0831447884093
 20
15.55821634442208
 10
15.09024170002044
 20
15.54942130365828
 42
-0.1713859372707249
 10
15.0911287634658
 20
15.54690940676408
 10
15.0911287634658
 20
15.53030066421882
 42
-0.4796563285018908
 10
15.08626300501009
 20
15.52639548019033
 10
15.03294618576319
 20
15.53821553444646
 42
-1.18732000000001
 10
15.03542279439602
 20
15.54570050162613
 10
15.06064476667302
 20
15.58084618375074
 42
0.5226964515163776
 10
15.05763146852769
 20
15.59022690580741
 10
14.96732536769764
 20
15.59022690580741
 42
0.4142135623730948
 10
14.96332536769796
 20
15.58622690580745
 10
14.96332536769796
 20
15.57929900227333
 42
0.1316880554408089
 10
14.96386154573179
 20
15.5772985179853
 10
14.98065146852741
 20
15.54822690580744
 42
-1.0
 10
14.98065146852741
 20
15.5402269058074
  0
LWPOLYLINE
  5
106
330
70
100
AcDbEntity
  8
A412_BuitenAfwerk
  6
Continuous
100
AcDbPolyline
 90
       36
 70
     1
 43
0.0
 10
14.84663146852745
 20
16.16822890580744
 10
15.14463146852745
 20
16.16822890580744
 10
15.14463146852745
 20
16.16422890580742
 10
15.17463146852742
 20
16.16422890580742
 10
15.17463146852742
 20
16.13422890580745
 10
15.17863146852755
 20
16.13422890580745
 10
15.17863146852755
 20
16.01622890580745
 10
15.10463146852726
 20
16.01622890580745
 42
0.4142135623730949
 10
15.08463146852773
 20
15.99622890580741
 10
15.08463146852773
 20
15.97622890580743
 10
15.08863146852741
 20
15.97622890580743
 10
15.08863146852741
 20
15.80022890580738
 10
15.08463146852773
 20
15.80022890580738
 10
15.08463146852773
 20
15.72022890580746
 10
15.08863146852741
 20
15.72022890580746
 10
15.08863146852741
 20
15.66622890580743
 10
15.08463146852773
 20
15.66622890580743
 10
15.08463146852773
 20
15.62622890580741
 10
15.0546314685273
 20
15.62622890580741
 10
15.0546314685273
 20
15.62222890580744
 10
14.96332536769796
 20
15.62222890580744
 42
0.0903337632536812
 10
14.95063146852771
 20
15.61991666209741
 42
0.0903337632536465
 10
14.93793756935701
 20
15.62222890580744
 10
14.84663146852745
 20
15.62222890580744
 10
14.84663146852745
 20
15.62622890580741
 10
14.8166314685277
 20
15.62622890580741
 10
14.8166314685277
 20
15.66622890580743
 10
14.81263146852757
 20
15.66622890580743
 10
14.81263146852757
 20
15.72022890580746
 10
14.8166314685277
 20
15.72022890580746
 10
14.8166314685277
 20
15.80022890580738
 10
14.81263146852757
 20
15.80022890580738
 10
14.81263146852757
 20
16.13422890580745
 10
14.8166314685277
 20
16.13422890580745
 10
14.8166314685277
 20
16.16422890580742
 10
14.84663146852745
 20
16.16422890580742
  0
LWPOLYLINE
  5
107
330
70
100
AcDbEntity
  8
A20-_Hatch
100
AcDbPolyline
 90
       61
 70
     1
 43
0.0
 10
14.75301192052757
 20
15.34017328072002
 10
14.70266011097828
 20
15.34872329283843
 42
0.4931454260312944
 10
14.69007192052731
 20
15.33906403457553
 10
14.69007192052731
 20
15.32103800289167
 10
14.75301192052757
 20
15.30417328072002
 10
14.80001192052759
 20
15.30417328072002
 42
-0.3869081174511806
 10
14.8099676622005
 20
15.29511307205001
 10
14.8099676622005
 20
15.07294731682134
 42
0.3150162412391512
 10
14.84944577646229
 20
15.01662699179013
 10
14.86389446056637
 20
15.01136791333334
 42
-0.4662989413617857
 10
14.86913449137932
 20
14.99697117510339
 10
14.85116735652764
 20
14.96584994995385
 42
0.1316439999996899
 10
14.85063146852758
 20
14.96385013395382
 10
14.85063146852758
 20
14.95612338995386
 42
0.4142140000000696
 10
14.85663122452752
 20
14.95012332995384
 10
14.87393141001553
 20
14.95012332995384
 10
14.87932838894767
 20
14.95107833440431
 42
0.363798733144901
 10
14.88263141001539
 20
14.95501714391582
 10
14.8826312845274
 20
14.95852725795385
 42
-1.824303103683518
 10
14.90363134452741
 20
14.95852695395382
 10
14.90363141001535
 20
14.95501360768258
 42
0.3639786597055921
 10
14.90693693453386
 20
14.9510743560017
 10
14.91233141001521
 20
14.95012332995384
 10
14.92963140852771
 20
14.95012332995384
 42
0.4142139999997097
 10
14.93563146852739
 20
14.95612338995386
 10
14.93563146852739
 20
14.96385013395382
 42
0.1316410000001315
 10
14.93509588452752
 20
14.96585025795383
 10
14.91756842052746
 20
14.99620883795381
 42
-0.1273370000000661
 10
14.91703192052773
 20
14.99814090595384
 10
14.91703192052773
 20
14.99985827953549
 42
0.3404602080228561
 10
14.87979858719404
 20
15.04820093380914
 10
14.86646260335646
 20
15.05305407227536
 42
-0.315312669485056
 10
14.85001192052755
 20
15.07654681957973
 10
14.85001192052755
 20
15.46379974186033
 42
-0.3153126694850825
 10
14.86646260335646
 20
15.4872924891647
 10
14.87979858719404
 20
15.49204205177733
 42
0.340460208022863
 10
14.91703192052773
 20
15.54038470605104
 10
14.91703192052773
 20
15.54210207963268
 42
-0.1273370000000458
 10
14.91756842052746
 20
15.54403414763266
 10
14.93509588452752
 20
15.57439272763264
 42
0.1316410000000415
 10
14.93563146852739
 20
15.57639285163264
 10
14.93563146852739
 20
15.58411959563267
 42
0.4142139999999825
 10
14.92963140852771
 20
15.59011965563263
 10
14.91233140851614
 20
15.59011965563263
 10
14.90693693303455
 20
15.58916862958483
 42
0.3639786597054655
 10
14.90363140851605
 20
15.58522937790388
 10
14.90363134452741
 20
15.58171603163265
 42
-1.809161999999915
 10
14.8826312845274
 20
15.58171572763268
 10
14.88263140851586
 20
15.5852258416707
 42
0.3637987331448093
 10
14.87932838744814
 20
15.58916465118221
 10
14.873931408516
 20
15.59011965563263
 10
14.85663122452752
 20
15.59011965563263
 42
0.4142139999999303
 10
14.85063146852758
 20
15.58411959563267
 10
14.85063146852758
 20
15.57639285163264
 42
0.1316439999996092
 10
14.85116735652764
 20
15.57439303563268
 10
14.86913449137932
 20
15.54327181048307
 42
-0.4662989413617827
 10
14.86389446056637
 20
15.52887507225313
 10
14.84944577646229
 20
15.5236159937964
 42
0.3150162412391524
 10
14.8099676622005
 20
15.46729566876519
 10
14.8099676622005
 20
15.34923348939009
 42
-0.386908117451333
 10
14.80001192052759
 20
15.34017328072002
  0
LWPOLYLINE
  5
108
330
70
100
AcDbEntity
  8
A20-_Hatch
100
AcDbPolyline
 90
       64
 70
     1
 43
0.0
 10
14.99432600402065
 20
14.95117793185528
 10
14.98893152853907
 20
14.95022690580742
 10
14.97163152852772
 20
14.95022690580742
 42
-0.4142139999998771
 10
14.96563146852782
 20
14.95622696580739
 10
14.96563146852782
 20
14.96395370980741
 42
-0.1316409999997695
 10
14.96616705252768
 20
14.96595383380742
 10
14.98369451652797
 20
14.9963124138074
 42
0.1273370000001147
 10
14.9842310165277
 20
14.99824448180737
 10
14.9842310165277
 20
14.99996185538902
 42
-0.3404602080228595
 10
15.02146434986116
 20
15.04830450966273
 10
15.03480033369919
 20
15.05305407227536
 42
0.3153126694850627
 10
15.05125101652765
 20
15.07654681957973
 10
15.05129527485496
 20
15.15537173749243
 42
0.4142135623730982
 10
15.03129527485498
 20
15.17537173749247
 10
14.88097694804196
 20
15.17537173749247
 42
-1.000000000000164
 10
14.88117694804191
 20
15.19529294891873
 10
15.03129527485498
 20
15.19529294891873
 42
0.4142135623730949
 10
15.05129527485496
 20
15.21529294891877
 10
15.05129527485496
 20
15.32529294891873
 42
0.4142135623730939
 10
15.03129527485498
 20
15.34529294891871
 10
14.88097694804196
 20
15.34529294891871
 42
-1.000000000000164
 10
14.88117694804191
 20
15.36521416034503
 10
15.03129527485498
 20
15.36521416034503
 42
0.4142135623730949
 10
15.05129527485496
 20
15.38521416034501
 10
15.05125101652765
 20
15.46379974186038
 42
0.3153126694850696
 10
15.03480033369919
 20
15.4872924891647
 10
15.02146434986116
 20
15.49214562763097
 42
-0.3404602080228607
 10
14.9842310165277
 20
15.54048828190457
 10
14.9842310165277
 20
15.54220565548621
 42
0.1273370000001393
 10
14.98369451652797
 20
15.54413772348624
 10
14.96616705252768
 20
15.57449630348623
 42
-0.1316410000000282
 10
14.96563146852782
 20
15.57649642748623
 10
14.96563146852782
 20
15.58422317148625
 42
-0.4142139999997098
 10
14.97163152852772
 20
15.59022323148627
 10
14.98893152703999
 20
15.59022323148627
 10
14.99432600252134
 20
15.58927220543836
 42
-0.363978659705567
 10
14.99763152703986
 20
15.58533295375747
 10
14.99763159252779
 20
15.58181960748624
 42
1.824303103683518
 10
15.0186316525278
 20
15.58181930348627
 10
15.01863152703981
 20
15.58532941752423
 42
-0.3637987331448472
 10
15.02193454810754
 20
15.5892682270358
 10
15.02733152703967
 20
15.59022323148627
 10
15.04463171252792
 20
15.59022323148627
 42
-0.4142140000000064
 10
15.05063146852762
 20
15.58422317148625
 10
15.05063146852762
 20
15.57649642748623
 42
-0.1316439999997336
 10
15.05009558052757
 20
15.57449661148621
 10
15.03212844567588
 20
15.54337538633666
 42
0.4662989413617806
 10
15.03736847648906
 20
15.52897864810671
 10
15.05181716059292
 20
15.52371956964992
 42
-0.3150162412391561
 10
15.09129527485493
 20
15.46739924461872
 10
15.09129527485493
 20
15.07305089267487
 42
-0.3150162412391495
 10
15.05181716059292
 20
15.01673056764372
 10
15.03736847648906
 20
15.01147148918693
 42
0.4662989413618075
 10
15.03212844567588
 20
14.99707475095698
 10
15.05009558052757
 20
14.96595352580738
 42
-0.1316439999998215
 10
15.05063146852762
 20
14.96395370980741
 10
15.05063146852762
 20
14.95622696580739
 42
-0.4142139999999235
 10
15.04463171252792
 20
14.95022690580742
 10
15.02733152853943
 20
14.95022690580742
 10
15.02193454960706
 20
14.95118191025784
 42
-0.3637987331448693
 10
15.01863152853934
 20
14.95512071976935
 10
15.0186316525278
 20
14.95863083380743
 42
1.809161999999984
 10
14.99763159252779
 20
14.95863052980741
 10
14.99763152853916
 20
14.95511718353617
 42
-0.3639786597055336
  0
LWPOLYLINE
  5
109
330
70
100
AcDbEntity
  8
A412_BuitenAfwerk
  6
Continuous
100
AcDbPolyline
 90
       41
 70
     1
 43
0.0
 10
15.22063192686073
 20
16.2002289057969
 10
15.70063192686098
 20
16.2002069057969
 42
-0.4142001381642905
 10
15.71063146852748
 20
16.19020690580737
 10
15.71063146852748
 20
15.38622290673458
 42
-0.4142135623730949
 10
15.70063146852772
 20
15.3762229067346
 10
15.67263146852747
 20
15.3762229067346
 10
15.67263146852747
 20
15.40422290673456
 10
15.56813146852755
 20
15.3762229067346
 10
15.52271146852763
 20
15.3762429067346
 42
-0.999985102668197
 10
15.52271146852763
 20
15.40024290673455
 10
15.5650514685276
 20
15.40024290673455
 10
15.67929884652312
 20
15.43084488298342
 42
0.3399676650058029
 10
15.68671147026634
 20
15.4405219161294
 10
15.68657147711929
 20
15.64027801199643
 42
0.4136995508473721
 10
15.66657150792844
 20
15.66024290673454
 10
15.18067146852763
 20
15.66024290673454
 42
0.7395034091817841
 10
15.17642356249689
 20
15.64754854519981
 42
-0.2422226935024088
 10
15.18061146852733
 20
15.63941100480423
 10
15.18061146852733
 20
15.62450290673456
 42
-0.3265919279463682
 10
15.1276314685274
 20
15.67152290673459
 42
-0.4943199999999889
 10
15.13763146852761
 20
15.68424290673459
 10
15.66373182835264
 20
15.68424290673459
 42
0.4160111708902531
 10
15.68373145215355
 20
15.70436557629358
 10
15.68105272622324
 20
16.1410958563481
 42
0.4100623875020252
 10
15.65129509550274
 20
16.17091087749958
 10
15.25677206824457
 20
16.17409090190057
 42
0.4165234416595049
 10
15.2466914667466
 20
16.16409302951348
 10
15.2466514712878
 20
15.94223821951635
 42
-0.4141607612647249
 10
15.22065147171042
 20
15.91624290673457
 10
15.15061146852736
 20
15.91624290673457
 42
-0.4142135623730949
 10
15.14061146852759
 20
15.92624290673455
 10
15.14061146852759
 20
15.93424290673459
 10
15.16661146852743
 20
15.94924290673458
 10
15.18661146852742
 20
15.94196290673454
 10
15.18661146852742
 20
15.94024290673457
 10
15.22063146852724
 20
15.94024290673457
 10
15.22063146852724
 20
16.15606676535157
 42
0.1988496075615464
 10
15.21770424370788
 20
16.16313612538238
 10
15.21355869334684
 20
16.16728367842489
 42
-0.1988496075615119
 10
15.21063146852748
 20
16.1743530384557
 10
15.21063146852748
 20
16.19022890580743
 42
-0.4142269867093326
  0
LWPOLYLINE
  5
10A
330
70
100
AcDbEntity
  8
A32-_glas
100
AcDbPolyline
 90
        4
 70
     0
 43
0.0
 10
16.21063146852748
 20
15.31618737436713
 10
15.33137572007831
 20
15.31618737436713
 10
15.33137572007831
 20
15.23618737436709
 10
16.21063146852748
 20
15.23618737436709
  0
LWPOLYLINE
  5
10C
330
70
100
AcDbEntity
  8
A32-_glas
100
AcDbPolyline
 90
        4
 70
     0
 43
0.0
 10
16.21063146852748
 20
14.93618737436708
 10
15.33137572007831
 20
14.93618737436708
 10
15.33137572007831
 20
14.81618737436713
 10
16.21063146852748
 20
14.81618737436713
  0
LINE
  5
10D
330
70
100
AcDbEntity
  8
A422_BinnenAfwerk
100
AcDbLine
 10
15.70063192686098
 20
16.2002069057969
 30
0.0
 11
16.21061146852753
 21
16.2002069057969
 31
0.0
  0
LINE
  5
10E
330
70
100
AcDbEntity
  8
A422_BinnenAfwerk
100
AcDbLine
 10
15.71065146852766
 20
15.4242522114917
 30
0.0
 11
16.21063146852748
 21
15.4242522114917
 31
0.0
  0
LINE
  5
10F
330
70
100
AcDbEntity
  8
A412_BuitenAfwerk
100
AcDbLine
 10
15.70063146852772
 20
14.6602269058074
 30
0.0
 11
16.21063146852748
 21
14.6602269058074
 31
0.0
  0
LINE
  5
110
330
70
100
AcDbEntity
  8
A412_BuitenAfwerk
100
AcDbLine
 10
15.70068218597657
 20
14.73618737436709
 30
0.0
 11
16.21063146852748
 21
14.73618737436709
 31
0.0
  0
LINE
  5
111
330
70
100
AcDbEntity
  8
A20-_Hatch
100
AcDbLine
 10
15.33137572007831
 20
15.33222737436711
 30
0.0
 11
15.24217013490738
 21
15.33222737436711
 31
0.0
  0
LINE
  5
112
330
70
100
AcDbEntity
  8
A20-_Hatch
100
AcDbLine
 10
15.24217013490738
 20
14.80018737436711
 30
0.0
 11
15.33137572007831
 21
14.80018737436711
 31
0.0
  0
LINE
  5
113
330
70
100
AcDbEntity
  8
A20-_Hatch
100
AcDbLine
 10
15.33137572007831
 20
14.80018737436711
 30
0.0
 11
15.33137572007831
 21
15.33222737436711
 31
0.0
  0
LINE
  5
114
330
70
100
AcDbEntity
  8
A20-_Hatch
100
AcDbLine
 10
15.33137572007831
 20
15.33222737436711
 30
0.0
 11
15.24217013490738
 21
14.80018737436711
 31
0.0
  0
LINE
  5
115
330
70
100
AcDbEntity
  8
A20-_Hatch
100
AcDbLine
 10
15.24217013490738
 20
14.80018737436711
 30
0.0
 11
15.33137572007831
 21
14.80018737436711
 31
0.0
  0
LINE
  5
116
330
70
100
AcDbEntity
  8
A20-_Hatch
100
AcDbLine
 10
15.33137572007831
 20
14.80018737436711
 30
0.0
 11
15.24217013490738
 21
15.33222737436711
 31
0.0
  0
LINE
  5
117
330
70
100
AcDbEntity
  8
A20-_Hatch
100
AcDbLine
 10
15.23975783973833
 20
14.94956900383494
 30
0.0
 11
15.15232757564945
 21
14.70935632747307
 31
0.0
  0
ARC
  5
118
330
70
100
AcDbEntity
  8
A20-_Hatch
100
AcDbCircle
 10
15.20217130019728
 20
15.5311066621386
 30
0.0
 40
0.0399985641534941
100
AcDbArc
 50
37.31361901076379
 51
74.62827077178322
  0
LINE
  5
119
330
70
100
AcDbEntity
  8
A20-_Hatch
100
AcDbLine
 10
15.161450134907
 20
15.58378553033958
 30
0.0
 11
15.21277413490702
 21
15.56967433033958
 31
0.0
  0
LINE
  5
11A
330
70
100
AcDbEntity
  8
A20-_Hatch
100
AcDbLine
 10
15.24217013490693
 20
15.5311059303396
 30
0.0
 11
15.24217013490693
 21
14.96324980956791
 31
0.0
  0
LINE
  5
11B
330
70
100
AcDbEntity
  8
A20-_Hatch
100
AcDbLine
 10
15.1101701567004
 20
15.53019833033807
 30
0.0
 11
15.11017013490709
 21
15.56802073033958
 31
0.0
  0
LINE
  5
11C
330
70
100
AcDbEntity
  8
A20-_Hatch
100
AcDbLine
 10
15.13353372323354
 20
14.69619673033958
 30
0.0
 11
15.10117013490708
 21
14.69619673033958
 31
0.0
  0
LINE
  5
11D
330
70
100
AcDbEntity
  8
A20-_Hatch
100
AcDbLine
 10
15.17247989013322
 20
14.97939066447867
 30
0.0
 11
15.12110876346582
 21
14.97939066447867
 31
0.0
  0
ARC
  5
11E
330
70
100
AcDbEntity
  8
A20-_Hatch
100
AcDbCircle
 10
15.17247989013322
 20
14.96939066447868
 30
0.0
 40
0.01
100
AcDbArc
 50
339.9999999998444
 51
90.0
  0
LINE
  5
11F
330
70
100
AcDbEntity
  8
A20-_Hatch
100
AcDbLine
 10
15.11656885391039
 20
14.78653831095721
 30
0.0
 11
15.18187681634117
 21
14.96597046304543
 31
0.0
  0
LINE
  5
120
330
70
100
AcDbEntity
  8
A20-_Hatch
100
AcDbLine
 10
15.11017013490709
 20
15.56802073033958
 30
0.0
 11
15.10117013490708
 21
15.56802073033958
 31
0.0
  0
ARC
  5
121
330
70
100
AcDbEntity
  8
A20-_Hatch
100
AcDbCircle
 10
15.10125817348398
 20
15.57710913033958
 30
0.0
 40
0.0090888264011941
100
AcDbArc
 50
90.55500210570892
 51
269.4449978942911
  0
LINE
  5
122
330
70
100
AcDbEntity
  8
A20-_Hatch
100
AcDbLine
 10
15.10117013490708
 20
15.58619753033957
 30
0.0
 11
15.14776613490721
 21
15.58619753033957
 31
0.0
  0
ARC
  5
123
330
70
100
AcDbEntity
  8
A20-_Hatch
100
AcDbCircle
 10
15.14776691116094
 20
15.54617459266376
 30
0.0
 40
0.0400229376833458
100
AcDbArc
 50
80.00361442441048
 51
90.00111126373221
  0
ARC
  5
124
330
70
100
AcDbEntity
  8
A20-_Hatch
100
AcDbCircle
 10
15.14776981816021
 20
15.54619162264555
 30
0.0
 40
0.0400056616243158
100
AcDbArc
 50
70.00369648766113
 51
80.00348080085368
  0
ARC
  5
125
330
70
100
AcDbEntity
  8
A20-_Hatch
100
AcDbCircle
 10
15.20217141944249
 20
15.53110625607013
 30
0.0
 40
0.039998715465874
100
AcDbArc
 50
359.9995334104095
 51
37.31418517109874
  0
ARC
  5
126
330
70
100
AcDbEntity
  8
A20-_Hatch
100
AcDbCircle
 10
15.20217013490719
 20
14.96324980956791
 30
0.0
 40
0.0400000000000006
100
AcDbArc
 50
339.9999999998444
 51
0.0
  0
ARC
  5
127
330
70
100
AcDbEntity
  8
A20-_Hatch
100
AcDbCircle
 10
15.13353372323354
 20
14.71619673033956
 30
0.0
 40
0.0200000000000019
100
AcDbArc
 50
270.0
 51
339.9999999998444
  0
ARC
  5
128
330
70
100
AcDbEntity
  8
A20-_Hatch
100
AcDbCircle
 10
15.10125809719466
 20
14.70528673033953
 30
0.0
 40
0.0090904255876181
100
AcDbArc
 50
90.55442360109443
 51
269.4455763989056
  0
LINE
  5
129
330
70
100
AcDbEntity
  8
A20-_Hatch
100
AcDbLine
 10
15.10117013490708
 20
14.71437673033955
 30
0.0
 11
15.11017013490709
 21
14.71437673033955
 31
0.0
  0
LINE
  5
12A
330
70
100
AcDbEntity
  8
A20-_Hatch
100
AcDbLine
 10
15.11017013490709
 20
14.71437673033955
 30
0.0
 11
15.11017013490709
 21
14.74238609598791
 31
0.0
  0
ARC
  5
12B
330
70
100
AcDbEntity
  8
A20-_Hatch
100
AcDbCircle
 10
15.114170134907
 20
14.74238609598791
 30
0.0
 40
0.0039999999999991
100
AcDbArc
 50
91.63055568677897
 51
180.0
  0
ARC
  5
12C
330
70
100
AcDbEntity
  8
A20-_Hatch
100
AcDbCircle
 10
15.11348722152638
 20
14.76637637796642
 30
0.0
 40
0.0200000000019769
100
AcDbArc
 50
271.6305556899069
 51
70.00000000001133
  0
LINE
  5
12D
330
70
100
AcDbEntity
  8
A20-_Hatch
100
AcDbLine
 10
15.12032762439367
 20
14.78517023038398
 30
0.0
 11
15.11656885391039
 21
14.78653831095721
 31
0.0
  0
LINE
  5
12E
330
70
100
AcDbEntity
  8
A20-_Hatch
100
AcDbLine
 10
15.18215813490701
 20
15.04939066450242
 30
0.0
 11
15.18215813490701
 21
15.48660046864086
 31
0.0
  0
ARC
  5
12F
330
70
100
AcDbEntity
  8
A20-_Hatch
100
AcDbCircle
 10
15.20217013490719
 20
14.71619673033956
 30
0.0
 40
0.0199999999999999
100
AcDbArc
 50
270.0
 51
0.0
  0
LINE
  5
130
330
70
100
AcDbEntity
  8
A20-_Hatch
100
AcDbLine
 10
15.22217013490694
 20
14.71619673033956
 30
0.0
 11
15.22217013490694
 21
14.90124718195051
 31
0.0
  0
LINE
  5
131
330
70
100
AcDbEntity
  8
A20-_Hatch
100
AcDbLine
 10
15.13353372323354
 20
14.69619673033958
 30
0.0
 11
15.20217013490719
 21
14.69619673033958
 31
0.0
  0
LINE
  5
132
330
70
100
AcDbEntity
  8
A20-_Hatch
100
AcDbLine
 10
15.23043690052282
 20
15.55940756270007
 30
0.0
 11
15.21436476989402
 21
15.57545964626342
 31
0.0
  0
LINE
  5
133
330
70
100
AcDbEntity
  8
A20-_Hatch
100
AcDbLine
 10
15.21436476989402
 20
15.57545964626342
 30
0.0
 11
15.15947359031293
 21
15.59055161908901
 31
0.0
  0
ARC
  5
134
330
70
100
AcDbEntity
  8
A20-_Hatch
100
AcDbCircle
 10
15.1472787220805
 20
15.54619753033961
 30
0.0
 40
0.0460000000000004
100
AcDbArc
 50
74.62675860624081
 51
90.0
  0
LINE
  5
135
330
70
100
AcDbEntity
  8
A20-_Hatch
100
AcDbLine
 10
15.1472787220805
 20
15.5921975303396
 30
0.0
 11
15.11017011799799
 21
15.5921975303396
 31
0.0
  0
LINE
  5
136
330
70
100
AcDbEntity
  8
A20-_Hatch
100
AcDbLine
 10
15.11017011799799
 20
15.5921975303396
 30
0.0
 11
15.11017011799799
 21
15.58619753033957
 31
0.0
  0
LINE
  5
137
330
70
100
AcDbEntity
  8
A20-_Hatch
100
AcDbLine
 10
15.11017011799799
 20
15.56802073033958
 30
0.0
 11
15.11017011799799
 21
15.58619753033957
 31
0.0
  0
LINE
  5
138
330
70
100
AcDbEntity
  8
A20-_Hatch
100
AcDbLine
 10
15.11008214862659
 20
14.71437673033955
 30
0.0
 11
15.11008214862659
 21
14.69619673033958
 31
0.0
  0
ARC
  5
139
330
70
100
AcDbEntity
  8
A20-_Hatch
100
AcDbCircle
 10
15.07144238257024
 20
14.89647140659718
 30
0.0
 40
0.0942051239108847
100
AcDbArc
 50
11.86906970608722
 51
63.25489250523173
  0
ARC
  5
13A
330
70
100
AcDbEntity
  8
A20-_Hatch
100
AcDbCircle
 10
15.11417015670031
 20
15.53019833033807
 30
0.0
 40
0.004
100
AcDbArc
 50
180.0
 51
270.0
  0
LINE
  5
13B
330
70
100
AcDbEntity
  8
A20-_Hatch
100
AcDbLine
 10
15.18614997740042
 20
15.52619833033805
 30
0.0
 11
15.11417015670031
 21
15.52619833033805
 31
0.0
  0
ARC
  5
13C
330
70
100
AcDbEntity
  8
A20-_Hatch
100
AcDbCircle
 10
15.18614997740042
 20
15.50619804995864
 30
0.0
 40
0.0200002803794239
100
AcDbArc
 50
14.47730478392041
 51
90.0
  0
ARC
  5
13D
330
70
100
AcDbEntity
  8
A20-_Hatch
100
AcDbCircle
 10
15.18615001509533
 20
15.51619804022545
 30
0.0
 40
0.0200002414501925
100
AcDbArc
 50
345.5210360575041
 51
345.5226951938431
  0
LINE
  5
13E
330
70
100
AcDbEntity
  8
A20-_Hatch
100
AcDbLine
 10
15.17247989013322
 20
14.97939066447867
 30
0.0
 11
15.12110876346582
 21
14.97939066447867
 31
0.0
  0
ARC
  5
13F
330
70
100
AcDbEntity
  8
A20-_Hatch
100
AcDbCircle
 10
15.17247989013322
 20
14.96939066447868
 30
0.0
 40
0.01
100
AcDbArc
 50
339.9999999998444
 51
90.0
  0
ARC
  5
140
330
70
100
AcDbEntity
  8
A20-_Hatch
100
AcDbCircle
 10
15.18614997740042
 20
15.50619804995864
 30
0.0
 40
0.02
100
AcDbArc
 50
258.4868913867222
 51
14.47585302753234
  0
ARC
  5
141
330
70
100
AcDbEntity
  8
A20-_Hatch
100
AcDbCircle
 10
15.17215813490679
 20
15.04939066447872
 30
0.0
 40
0.0099999999999999
100
AcDbArc
 50
270.0
 51
0.0
  0
LINE
  5
142
330
70
100
AcDbEntity
  8
A20-_Hatch
100
AcDbLine
 10
15.12110876346582
 20
15.03939066447867
 30
0.0
 11
15.17215813490679
 21
15.03939066447867
 31
0.0
  0
ARC
  5
143
330
70
100
AcDbEntity
  8
A20-_Hatch
100
AcDbCircle
 10
15.12110876346582
 20
15.0093906644787
 30
0.0
 40
0.0300000000000001
100
AcDbArc
 50
90.0
 51
270.0
  0
ARC
  5
144
330
70
100
AcDbEntity
  8
A20-_Hatch
100
AcDbCircle
 10
14.98738244432025
 20
15.1901204872338
 30
0.0
 40
0.2087826613224093
100
AcDbArc
 50
313.7846134394728
 51
338.8932688650732
  0
ARC
  5
145
330
70
100
AcDbEntity
  8
A20-_Hatch
100
AcDbCircle
 10
15.07144238257024
 20
14.89647140659718
 30
0.0
 40
0.0942051239108835
100
AcDbArc
 50
11.86906970608722
 51
62.49792711116072
  0
LINE
  5
146
330
70
100
AcDbEntity
  8
A20-_Hatch
100
AcDbLine
 10
15.24217013490738
 20
14.80018737436711
 30
0.0
 11
15.24217013490738
 21
15.33222737436711
 31
0.0
  0
LWPOLYLINE
  5
147
330
70
100
AcDbEntity
  8
A20-_Hatch
100
AcDbPolyline
 90
       12
 70
     1
 43
0.0
 10
15.58333858052742
 20
14.7867657906624
 42
-0.262314999999999
 10
15.58340058852764
 20
14.78087585466233
 10
15.55815520052783
 20
14.76467338636706
 42
0.4232619999999983
 10
15.56068670052764
 20
14.75643880236708
 42
0.1184870000000002
 10
15.58005589252752
 20
14.7517834503671
 42
0.0239088278823389
 10
15.58412504788794
 20
14.75197813890014
 42
0.2413263751679871
 10
15.64951251363118
 20
14.78360297608998
 42
0.4211337802807706
 10
15.64440567252768
 20
14.80102764198506
 10
15.59299909194396
 20
14.80822485116135
 42
0.0612422333254067
 10
15.54120437426127
 20
14.80873757306716
 42
0.2685290000000025
 10
15.53892843426092
 20
14.80480535706715
 42
0.1623399999999986
 10
15.53983607026111
 20
14.80208354906716
  0
LWPOLYLINE
  5
148
330
70
100
AcDbEntity
  8
A20-_Hatch
100
AcDbPolyline
 90
        8
 70
     1
 43
0.0
 10
15.63467146852781
 20
14.7381873743671
 42
-0.4142140000000018
 10
15.64467146852758
 20
14.72818737436711
 10
15.64467146852758
 20
14.72218736689632
 42
-0.4142135623730951
 10
15.6346714759984
 20
14.71218737436709
 10
15.58667146105676
 20
14.71218737436709
 42
-0.4142135623730951
 10
15.57667146852759
 20
14.72218736689632
 10
15.57667146852759
 20
14.72818737436711
 42
-0.4142140000000003
 10
15.58667146852781
 20
14.7381873743671
  0
LWPOLYLINE
  5
149
330
70
100
AcDbEntity
  8
A20-_Hatch
100
AcDbPolyline
 90
        6
 70
     1
 43
0.0
 10
15.67299124052761
 20
14.78488585066236
 10
15.65823357869408
 20
14.77823619129492
 42
0.5996366009869492
 10
15.66336123606106
 20
14.76135578245567
 10
15.67994746852764
 20
14.75806974636708
 42
0.4463070000000013
 10
15.68947175652738
 20
14.76521997036707
 10
15.69116041252778
 20
14.77641342666237
 42
0.7002079999999989
  0
CIRCLE
  5
14A
330
70
100
AcDbEntity
  8
A20-_Hatch
100
AcDbCircle
 10
15.65252671548137
 20
14.74925068935209
 30
0.0
 40
0.007
  0
LINE
  5
14B
330
70
100
AcDbEntity
  8
RI-GASKET
100
AcDbLine
 10
15.68330716545119
 20
14.81618737436713
 30
0.0
 11
15.71329607696407
 21
14.81618737436713
 31
0.0
  0
LWPOLYLINE
  5
14E
330
70
100
AcDbEntity
  8
A20-_Hatch
100
AcDbPolyline
 90
       40
 70
     1
 43
0.0
 10
15.56549886354651
 20
14.70018737436709
 10
15.57369501652738
 20
14.70018737436709
 10
15.57669501652776
 20
14.6971873743671
 10
15.57969501652769
 20
14.70018737436709
 10
15.58269501652739
 20
14.6971873743671
 10
15.58569501652778
 20
14.70018737436709
 10
15.63564792052784
 20
14.70018737436709
 10
15.63864792052754
 20
14.6971873743671
 10
15.64164792052747
 20
14.70018737436709
 10
15.64464792052786
 20
14.6971873743671
 10
15.64764792052756
 20
14.70018737436709
 10
15.65584407350866
 20
14.70018737436709
 10
15.67619902183742
 20
14.70859814635605
 42
0.7169157408786904
 10
15.67570674592457
 20
14.71615868199279
 10
15.67170674452745
 20
14.71723047836707
 10
15.66067146852765
 20
14.72018737436713
 10
15.66067146852765
 20
14.72818737436711
 42
-0.4142139999999889
 10
15.66867146852769
 20
14.73618737436709
 10
15.7036927605277
 20
14.73618737436709
 42
0.3888789999999973
 10
15.71166231652751
 20
14.74349012636707
 10
15.71657728052764
 20
14.78497175866232
 42
-0.0804167062038521
 10
15.72092388852752
 20
14.80309766198508
 42
0.5235957274026576
 10
15.71329607696407
 20
14.81618737436713
 10
15.54006908297037
 20
14.81618737436713
 42
0.1788515336420821
 10
15.53356652440084
 20
14.81378452725795
 10
15.53270062452748
 20
14.81304338584329
 42
0.2110322284284612
 10
15.53015418452764
 20
14.80734811306717
 42
0.0696496778772734
 10
15.53149393252738
 20
14.7976558613156
 10
15.56896063252748
 20
14.78366911866231
 10
15.53365669252776
 20
14.76188666236709
 42
0.1513439999999985
 10
15.53015418452764
 20
14.75058034236707
 42
0.066023
 10
15.53084558852743
 20
14.74536707436709
 10
15.53344910852752
 20
14.73572431036712
 42
0.4030769999999987
 10
15.53820534452734
 20
14.73286826636712
 10
15.5526714685277
 20
14.73618737436709
 42
-0.4142139999999976
 10
15.56067146852752
 20
14.72818737436711
 10
15.56067146852752
 20
14.72018737436713
 10
15.54963619252771
 20
14.71723047836707
 42
0.3394539999999988
 10
15.54667146852762
 20
14.71336677836706
 42
0.2679490000000038
 10
15.54867146852757
 20
14.70990267436713
  0
LWPOLYLINE
  5
14F
330
70
100
AcDbEntity
  8
A32-_glas
100
AcDbPolyline
 90
        5
 70
     0
 43
0.0
 10
15.3713757200785
 20
14.9761873743671
 10
15.3713757200785
 20
15.19618737436713
 10
15.43137572007822
 20
15.19618737436713
 10
15.43137572007822
 20
14.9761873743671
 10
15.3713757200785
 20
14.9761873743671
  0
LWPOLYLINE
  5
150
330
70
100
AcDbEntity
  8
A32-_glas
100
AcDbPolyline
 90
        5
 70
     0
 43
0.0
 10
15.33137572007831
 20
15.23618737436709
 10
15.47137572007841
 20
15.23618737436709
 10
15.47137572007841
 20
14.93618737436708
 10
15.33137572007831
 20
14.93618737436708
 10
15.33137572007831
 20
15.23618737436709
  0
LWPOLYLINE
  5
151
330
70
100
AcDbEntity
  8
A20-_Hatch
100
AcDbPolyline
 90
       29
 70
     1
 43
0.0
 10
15.71615146852764
 20
15.4239566497468
 10
15.72967146852784
 20
15.41849664974683
 42
-0.1774633423037402
 10
15.73477146852769
 20
15.41387664974678
 42
-0.1215089674434389
 10
15.74665146852771
 20
15.36571664974679
 42
0.1823392223647467
 10
15.7677714685276
 20
15.33386737436712
 42
-0.6078048807715121
 10
15.75607146852781
 20
15.31618737436713
 10
15.71645146852779
 20
15.31618737436713
 42
-0.0338538349739918
 10
15.69234812885111
 20
15.32159706418821
 10
15.65336502312561
 20
15.33614998557374
 42
0.2527254846552271
 10
15.63973985983648
 20
15.34107218743196
 42
-0.0982530715560216
 10
15.58134069984362
 20
15.33277277416931
 10
15.61111146852772
 20
15.3292201999514
 42
-1.120918598446745
 10
15.61057832197275
 20
15.31618737436713
 10
15.56313146852767
 20
15.31618737436713
 42
-0.7270581648584008
 10
15.5515914685277
 20
15.34166737436715
 10
15.58334682381814
 20
15.35962510711454
 10
15.64321129032419
 20
15.38920338989953
 42
-0.4093066943298819
 10
15.64741808962026
 20
15.38917553566
 10
15.65308524234274
 20
15.3835284082121
 42
-0.4147320519720208
 10
15.65308900020864
 20
15.37928201630416
 10
15.63796568208999
 20
15.36565086330915
 42
0.6681786379192928
 10
15.63937989565238
 20
15.36223664974676
 10
15.6537488242684
 20
15.36223664974676
 42
0.1987002196827857
 10
15.65586841221557
 20
15.36311359842051
 10
15.66813452483984
 20
15.37535970107302
 42
-0.1987002196828023
 10
15.670254112787
 20
15.37623664974677
 10
15.70665146852752
 20
15.37623664974677
 42
0.4142135623730951
 10
15.71065146852766
 20
15.38023664974679
 10
15.71065146852766
 20
15.42023664974675
 42
-0.5317000130902596
  0
LWPOLYLINE
  5
152
330
70
100
AcDbEntity
  8
A20-_Hatch
100
AcDbPolyline
 90
        8
 70
     1
 43
0.0
 10
15.7037514685278
 20
15.33103734211556
 10
15.67365146852785
 20
15.34202737436715
 42
-0.6080296749529132
 10
15.67793146852773
 20
15.35416737436714
 10
15.70327146852787
 20
15.35772737436713
 42
-0.3566561998123465
 10
15.71411146852756
 20
15.35108737436712
 10
15.72338322167002
 20
15.342965343017
 42
0.1239636291951166
 10
15.75209598700189
 20
15.32817530477905
 10
15.71645086013473
 20
15.32817530477905
 42
-0.0315680143157051
  0
LINE
  5
153
330
70
100
AcDbEntity
  8
A412_BuitenAfwerk
  6
Continuous
100
AcDbLine
 10
13.74084360783263
 20
15.98426843724769
 30
0.0
 11
13.70084360783244
 21
15.98426843724769
 31
0.0
  0
LINE
  5
154
330
70
100
AcDbEntity
  8
A412_BuitenAfwerk
  6
Continuous
100
AcDbLine
 10
13.70084360783244
 20
15.67370843724774
 30
0.0
 11
13.70084360783244
 21
15.61226843724773
 31
0.0
  0
LINE
  5
155
330
70
100
AcDbEntity
  8
A412_BuitenAfwerk
  6
Continuous
100
AcDbLine
 10
13.74084360783263
 20
15.61226843724773
 30
0.0
 11
13.74084360783263
 21
15.69226843724772
 31
0.0
  0
LINE
  5
156
330
70
100
AcDbEntity
  8
A412_BuitenAfwerk
  6
Continuous
100
AcDbLine
 10
13.70084360783244
 20
15.67370843724774
 30
0.0
 11
13.70084360783244
 21
15.61226843724773
 31
0.0
  0
LINE
  5
157
330
70
100
AcDbEntity
  8
A412_BuitenAfwerk
  6
Continuous
100
AcDbLine
 10
13.74084360783263
 20
15.61226843724773
 30
0.0
 11
13.74084360783263
 21
15.69226843724772
 31
0.0
  0
LWPOLYLINE
  5
158
330
70
100
AcDbEntity
  8
A412_BuitenAfwerk
  6
Continuous
100
AcDbPolyline
 90
        2
 70
     0
 43
0.0
 10
13.66884360783251
 20
15.76426843724772
 10
13.74084360783263
 20
15.69226843724772
  0
LINE
  5
159
330
70
100
AcDbEntity
  8
A412_BuitenAfwerk
  6
Continuous
100
AcDbLine
 10
13.66884360783251
 20
15.70570843724772
 30
0.0
 11
13.70084360783244
 21
15.67370843724774
 31
0.0
  0
LINE
  5
15A
330
70
100
AcDbEntity
  8
A412_BuitenAfwerk
  6
Continuous
100
AcDbLine
 10
13.74084360783263
 20
15.61226843724773
 30
0.0
 11
13.70084360783244
 21
15.61226843724773
 31
0.0
  0
LINE
  5
15B
330
70
100
AcDbEntity
  8
A412_BuitenAfwerk
  6
Continuous
100
AcDbLine
 10
13.70084360783244
 20
15.92282843724769
 30
0.0
 11
13.70084360783244
 21
15.98426843724769
 31
0.0
  0
LINE
  5
15C
330
70
100
AcDbEntity
  8
A412_BuitenAfwerk
  6
Continuous
100
AcDbLine
 10
13.70084360783244
 20
15.92282843724769
 30
0.0
 11
13.70084360783244
 21
15.98426843724769
 31
0.0
  0
LINE
  5
15D
330
70
100
AcDbEntity
  8
A412_BuitenAfwerk
  6
Continuous
100
AcDbLine
 10
13.74084360783263
 20
15.98426843724769
 30
0.0
 11
13.74084360783263
 21
15.90426843724771
 31
0.0
  0
LWPOLYLINE
  5
15E
330
70
100
AcDbEntity
  8
A412_BuitenAfwerk
  6
Continuous
100
AcDbPolyline
 90
        2
 70
     0
 43
0.0
 10
13.66884360783251
 20
15.89082843724776
 10
13.70084360783244
 20
15.92282843724769
  0
LWPOLYLINE
  5
15F
330
70
100
AcDbEntity
  8
A412_BuitenAfwerk
  6
Continuous
100
AcDbPolyline
 90
        3
 70
     0
 43
0.0
 10
13.66884360783251
 20
15.82860304050331
 10
13.74084360783263
 20
15.90060304050331
 10
13.74084360783263
 20
15.98426843724769
  0
LINE
  5
160
330
70
100
AcDbEntity
  8
A412_BuitenAfwerk
  6
Continuous
100
AcDbLine
 10
13.74084360783263
 20
15.98426843724769
 30
0.0
 11
13.70084360783244
 21
15.98426843724769
 31
0.0
  0
INSERT
  5
161
330
70
100
AcDbEntity
  8
A20-_Hatch
100
AcDbBlockReference
  2
0606052
 10
14.4477213627606
 20
16.02025197493407
 30
0.0
 41
0.02
 42
0.02
 43
0.02
  0
LWPOLYLINE
  5
1FE
330
70
100
AcDbEntity
  8
A20-_Hatch
100
AcDbPolyline
 90
        8
 70
     1
 43
0.0
 10
13.67084360783247
 20
16.10026843724773
 42
-0.4142135623730951
 10
13.69084360783267
 20
16.12026843724772
 10
13.78978691845509
 20
16.12026843724772
 42
-0.4142135623730951
 10
13.80978691845507
 20
16.10026843724773
 10
13.80978691845507
 20
16.04026843724767
 42
-0.4142135623730951
 10
13.78978691845509
 20
16.02026843724769
 10
13.69084360783267
 20
16.02026843724769
 42
-0.4142135623730951
 10
13.67084360783247
 20
16.04026843724767
  0
ARC
  5
1FF
330
70
100
AcDbEntity
  8
A20-_Hatch
100
AcDbCircle
 10
13.94805595618413
 20
16.09618169034934
 30
0.0
 40
0.0997871189916896
100
AcDbArc
 50
166.0319184371462
 51
229.5305399057989
  0
LWPOLYLINE
  5
200
330
70
100
AcDbEntity
  8
A20-_Hatch
100
AcDbPolyline
 90
        7
 70
     0
 43
0.0
 10
14.31059146852749
 20
14.62026643724772
 10
13.63059146852743
 20
14.62026643724772
 10
13.58884360783213
 20
15.19158062238387
 10
13.58884360783213
 20
15.97344945173506
 10
13.43122007613556
 20
16.0864026420387
 10
13.43121950777481
 20
16.94078416518101
 10
11.47121950777546
 20
16.94078327318192
  0
LWPOLYLINE
  5
201
330
70
100
AcDbEntity
  8
A20-_Hatch
  6
HIDDEN
100
AcDbPolyline
 90
        7
 70
     0
 43
0.04
 10
14.31059146852749
 20
14.6402664372477
 10
13.64971447789821
 20
14.6402664372477
 10
13.60884360783234
 20
15.19202894711424
 10
13.60884360783234
 20
15.98372244690597
 10
13.45122007146051
 20
16.09667564055979
 10
13.45121951687724
 20
16.96078417428305
 10
11.47121951687768
 20
16.9607832731819
  0
LWPOLYLINE
  5
202
330
70
100
AcDbEntity
  8
A412_BuitenAfwerk
  6
Continuous
100
AcDbPolyline
 90
        2
 70
     0
 43
0.0
 10
13.74241549486578
 20
14.58078418338573
 10
4.591236580174381
 20
14.58078418338573
  0
LWPOLYLINE
  5
203
330
70
100
AcDbEntity
  8
A412_BuitenAfwerk
  6
Continuous
100
AcDbPolyline
 90
        2
 70
     0
 43
0.0
 10
14.38559147687147
 20
14.54478418348827
 10
4.591236693990367
 20
14.54478418348816
  0
LWPOLYLINE
  5
204
102
{ACAD_REACTORS
330
21F
102
}
330
70
100
AcDbEntity
  8
A412_BuitenAfwerk
  6
Continuous
100
AcDbPolyline
 90
        2
 70
     0
 43
0.0
 10
4.591236852068277
 20
14.49478417496328
 10
14.38559147687147
 20
14.4947841749634
  0
LWPOLYLINE
  5
205
102
{ACAD_REACTORS
330
21F
102
}
330
70
100
AcDbEntity
  8
A412_BuitenAfwerk
  6
Continuous
100
AcDbPolyline
 90
        2
 70
     0
 43
0.0
 10
14.38559147687147
 20
14.45478417462345
 10
4.59123697853056
 20
14.45478417462334
  0
LWPOLYLINE
  5
206
330
70
100
AcDbEntity
  8
A412_BuitenAfwerk
  6
Continuous
100
AcDbPolyline
 90
        2
 70
     0
 43
0.0
 10
14.38559147687147
 20
14.41478416581975
 10
4.591237104992842
 20
14.41478416581964
  0
LWPOLYLINE
  5
207
330
70
100
AcDbEntity
  8
A412_BuitenAfwerk
  6
Continuous
100
AcDbPolyline
 90
        2
 70
     0
 43
0.0
 10
14.38559147687147
 20
14.37878416581861
 10
4.591237218808828
 20
14.3787841658185
  0
LWPOLYLINE
  5
208
330
70
100
AcDbEntity
  8
A412_BuitenAfwerk
  6
Continuous
100
AcDbPolyline
 90
        2
 70
     0
 43
0.0
 10
4.591238287414626
 20
14.04078417450154
 10
14.38559147687147
 20
14.04078417450165
  0
LWPOLYLINE
  5
209
330
70
100
AcDbEntity
  8
A412_BuitenAfwerk
  6
Continuous
100
AcDbPolyline
 90
        2
 70
     0
 43
0.0
 10
14.38559147687147
 20
14.00478417450012
 10
4.591238401230611
 20
14.0047841745
  0
LINE
  5
20A
102
{ACAD_REACTORS
330
21F
102
}
330
70
100
AcDbEntity
  8
A412_BuitenAfwerk
  6
Continuous
100
AcDbLine
 10
14.38559147687147
 20
14.58026643724759
 30
0.0
 11
14.38559147687147
 21
14.00426642836197
 31
0.0
  0
LINE
  5
20B
330
70
100
AcDbEntity
  8
A03-_TEXT
100
AcDbLine
 10
14.5155914768718
 20
12.82420483516415
 30
0.0
 11
14.5155914768718
 21
13.4470613564909
 31
0.0
  0
SOLID
  5
20F
330
70
100
AcDbEntity
  8
A03-_TEXT
100
AcDbTrace
 10
14.41559147687167
 20
13.4470613564909
 30
0.0
 11
14.5155914768718
 21
13.62026643724772
 31
0.0
 12
14.61559147687171
 22
13.4470613564909
 32
0.0
 13
14.61559147687171
 23
13.4470613564909
 33
0.0
  0
CIRCLE
  5
210
330
70
100
AcDbEntity
  8
A03-_TEXT
100
AcDbCircle
 10
14.5155914768718
 20
12.62420483516411
 30
0.0
 40
0.2
  0
MTEXT
  5
211
330
70
100
AcDbEntity
  8
A03-_TEXT
100
AcDbMText
 10
14.42512647252033
 20
12.78284051000065
 30
0.0
 40
0.2
 41
0.217808598071133
 71
     1
 72
     5
  1
{\fRaleway Medium|b0|i0|c0|p34;8.}
  7
1 Lezze 1-5
 73
     1
 44
1.0
1001
ACAD
1000
ACAD_MTEXT_COLUMN_INFO_BEGIN
1070
    75
1070
     2
1070
    79
1070
     0
1070
    76
1070
     1
1070
    78
1070
     0
1070
    48
1040
0.217808598071133
1070
    49
1040
10.0
1070
    50
1070
     1
1040
0.0
1000
ACAD_MTEXT_COLUMN_INFO_END
1000
MTEXTBEGIN
1070
    73
1070
     1
1070
    44
1040
1.0
1070
    74
1070
     0
1000
MTEXTEND
  0
LINE
  5
212
330
70
100
AcDbEntity
  8
A03-_TEXT
100
AcDbLine
 10
11.31112887215272
 20
12.82420483524601
 30
0.0
 11
11.31077678724273
 21
14.28157909386658
 31
0.0
  0
SOLID
  5
213
330
70
100
AcDbEntity
  8
A03-_TEXT
100
AcDbTrace
 10
11.21077678724282
 20
14.28157909386658
 30
0.0
 11
11.31077678724273
 21
14.4547841746234
 31
0.0
 12
11.41077678724286
 22
14.28157909386658
 32
0.0
 13
11.41077678724286
 23
14.28157909386658
 33
0.0
  0
CIRCLE
  5
214
330
70
100
AcDbEntity
  8
A03-_TEXT
100
AcDbCircle
 10
11.31112887215272
 20
12.62420483524596
 30
0.0
 40
0.2
  0
MTEXT
  5
215
330
70
100
AcDbEntity
  8
A03-_TEXT
100
AcDbMText
 10
11.22066386780125
 20
12.78284051008251
 30
0.0
 40
0.2
 41
0.217808598071133
 71
     1
 72
     5
  1
{\fRaleway Medium|b0|i0|c0|p34;3.}
  7
1 Lezze 1-5
 73
     1
 44
1.0
1001
ACAD
1000
ACAD_MTEXT_COLUMN_INFO_BEGIN
1070
    75
1070
     2
1070
    79
1070
     0
1070
    76
1070
     1
1070
    78
1070
     0
1070
    48
1040
0.217808598071133
1070
    49
1040
10.0
1070
    50
1070
     1
1040
0.0
1000
ACAD_MTEXT_COLUMN_INFO_END
1000
MTEXTBEGIN
1070
    73
1070
     1
1070
    44
1040
1.0
1070
    74
1070
     0
1000
MTEXTEND
  0
LINE
  5
216
330
70
100
AcDbEntity
  8
A03-_TEXT
100
AcDbLine
 10
10.71112902618551
 20
12.84950717666726
 30
0.0
 11
10.71112902618551
 21
13.8315790937433
 31
0.0
  0
SOLID
  5
217
330
70
100
AcDbEntity
  8
A03-_TEXT
100
AcDbTrace
 10
10.61077682286077
 20
13.8315790937433
 30
0.0
 11
10.71077682286068
 21
14.00478417450012
 31
0.0
 12
10.81077682286081
 22
13.8315790937433
 32
0.0
 13
10.81077682286081
 23
13.8315790937433
 33
0.0
  0
CIRCLE
  5
218
330
70
100
AcDbEntity
  8
A03-_TEXT
100
AcDbCircle
 10
10.71112902618551
 20
12.62420483516411
 30
0.0
 40
0.2
  0
MTEXT
  5
219
330
70
100
AcDbEntity
  8
A03-_TEXT
100
AcDbMText
 10
10.62066402183404
 20
12.78284051000059
 30
0.0
 40
0.2
 41
0.217808598071133
 71
     1
 72
     5
  1
{\fRaleway Medium|b0|i0|c0|p34;5.}
  7
1 Lezze 1-5
 73
     1
 44
1.0
1001
ACAD
1000
ACAD_MTEXT_COLUMN_INFO_BEGIN
1070
    75
1070
     2
1070
    79
1070
     0
1070
    76
1070
     1
1070
    78
1070
     0
1070
    48
1040
0.217808598071133
1070
    49
1040
10.0
1070
    50
1070
     1
1040
0.0
1000
ACAD_MTEXT_COLUMN_INFO_END
1000
MTEXTBEGIN
1070
    73
1070
     1
1070
    44
1040
1.0
1070
    74
1070
     0
1000
MTEXTEND
  0
CIRCLE
  5
21A
330
70
100
AcDbEntity
  8
A03-_TEXT
100
AcDbCircle
 10
10.83888998996099
 20
15.82713148126788
 30
0.0
 40
0.2
  0
MTEXT
  5
21B
330
70
100
AcDbEntity
  8
A03-_TEXT
100
AcDbMText
 10
10.74842498560974
 20
15.98576715610437
 30
0.0
 40
0.2
 41
0.217808598071133
 71
     1
 72
     5
  1
{\fRaleway Medium|b0|i0|c0|p34;1.}
  7
1 Lezze 1-5
 73
     1
 44
1.0
1001
ACAD
1000
ACAD_MTEXT_COLUMN_INFO_BEGIN
1070
    75
1070
     2
1070
    79
1070
     0
1070
    76
1070
     1
1070
    78
1070
     0
1070
    48
1040
0.217808598071133
1070
    49
1040
10.0
1070
    50
1070
     1
1040
0.0
1000
ACAD_MTEXT_COLUMN_INFO_END
1000
MTEXTBEGIN
1070
    73
1070
     1
1070
    44
1040
1.0
1070
    74
1070
     0
1000
MTEXTEND
  0
CIRCLE
  5
21C
330
70
100
AcDbEntity
  8
A03-_TEXT
100
AcDbCircle
 10
10.83888998996144
 20
14.7799629203767
 30
0.0
 40
0.2
  0
MTEXT
  5
21D
330
70
100
AcDbEntity
  8
A03-_TEXT
100
AcDbMText
 10
10.74842498560997
 20
14.93859859521325
 30
0.0
 40
0.2
 41
0.217808598071133
 71
     1
 72
     5
  1
{\fRaleway Medium|b0|i0|c0|p34;2.}
  7
1 Lezze 1-5
 73
     1
 44
1.0
1001
ACAD
1000
ACAD_MTEXT_COLUMN_INFO_BEGIN
1070
    75
1070
     2
1070
    79
1070
     0
1070
    76
1070
     1
1070
    78
1070
     0
1070
    48
1040
0.217808598071133
1070
    49
1040
10.0
1070
    50
1070
     1
1040
0.0
1000
ACAD_MTEXT_COLUMN_INFO_END
1000
MTEXTBEGIN
1070
    73
1070
     1
1070
    44
1040
1.0
1070
    74
1070
     0
1000
MTEXTEND
  0
LWPOLYLINE
  5
21E
330
70
100
AcDbEntity
  8
A20-_Hatch
100
AcDbPolyline
 90
        7
 70
     0
 43
0.0
 10
14.31059146852749
 20
14.66026643724774
 10
13.66777518538174
 20
14.66026643724774
 10
13.62884360783232
 20
15.1930401442907
 10
13.62884360783232
 20
15.99399544207659
 10
13.47122006308018
 20
16.10694864173587
 10
13.47121948235781
 20
16.98078418338508
 10
11.47121948957124
 20
16.98078327318188
  0
HATCH
  5
21F
330
70
100
AcDbEntity
  8
A20-_Hatch
 62
   253
100
AcDbHatch
 10
0.0
 20
0.0
 30
0.0
210
0.0
220
0.0
230
1.0
  2
SOLID
 70
     1
 71
     1
 91
        2
 92
        7
 72
     0
 73
     1
 93
        4
 10
14.38559147687147
 20
14.4947841749634
 10
4.591236852068277
 20
14.49478417496328
 10
4.59123697853056
 20
14.45478417462334
 10
14.38559147687147
 20
14.45478417462345
 97
        4
330
204
330
EC
330
205
330
20A
 92
        1
 93
       12
 72
     1
 10
13.74559147687137
 20
14.58026643724759
 11
14.48559147687151
 21
14.58026643724759
 72
     2
 10
14.48559147687138
 20
14.57026643724771
 40
0.0099999999998545
 50
270.0
 51
360.0
 73
     0
 72
     1
 10
14.49559147687137
 20
14.57026643724771
 11
14.49559147687137
 21
13.63026643724756
 72
     2
 10
14.50559147687158
 20
13.63026643724777
 40
0.0100000000002183
 50
180.0000000010421
 51
270.0
 73
     1
 72
     1
 10
14.50559147687158
 20
13.62026643724772
 11
14.52559147687166
 21
13.62026643724772
 72
     2
 10
14.52559147687157
 20
13.6302664372476
 40
0.0099999999998545
 50
270.0
 51
360.0
 73
     1
 72
     1
 10
14.53559147687156
 20
13.6302664372476
 11
14.53559147687156
 21
14.61026643724789
 72
     2
 10
14.52559147687157
 20
14.61026643724784
 40
0.0099999999998545
 50
-0.000000000000014
 51
89.99999999999998
 73
     1
 72
     1
 10
14.52559147687157
 20
14.62026643724772
 11
13.74559147687128
 21
14.62026643724772
 72
     2
 10
13.74559147687137
 20
14.61026643724784
 40
0.0099999999998545
 50
89.99999999999998
 51
180.0
 73
     1
 72
     1
 10
13.73559147687138
 20
14.61026643724784
 11
13.73559147687138
 21
14.5902664372474
 72
     2
 10
13.74559147687137
 20
14.5902664372474
 40
0.0099999999998545
 50
180.0
 51
270.0
 73
     1
 97
        1
330
EF
 75
     1
 76
     1
 47
0.0155726110352828
 98
        1
 10
14.23651544646077
 20
14.47815775657136
1001
GradientColor1ACI
1070
     5
1001
GradientColor2ACI
1070
     2
1001
ACAD
1010
0.0
1020
0.0
1030
0.0
  0
LWPOLYLINE
  5
225
330
70
100
AcDbEntity
  8
0
100
AcDbPolyline
 90
        4
 70
     1
 43
0.0
 10
0.2000000000000455
 20
8.193316039508374
 10
5.171394729159146
 20
8.193316039508374
 10
5.171394729159146
 20
2.912403659115113
 10
0.2000000000000455
 20
2.912403659115113
  0
MTEXT
  5
226
102
{ACAD_XDICTIONARY
360
227
102
}
330
70
100
AcDbEntity
  8
0
100
AcDbMText
 10
0.6766315294182732
 20
7.736573723242941
 30
0.0
 40
0.2000000259594057
 41
19.06756438161273
 71
     1
 72
     5
  3
{\fRaleway Medium|b0|i0|c0|p34;1.{\W6.02371; }isolatie\P2.{\W5.67588; }houten latwerk\P3.{\W5.6245; }basisprofiel\P4.{\W5.50988; }mato 1\P5.{\W5.58498; }mato 3\P6.{\W5.42687; }overgangsprofiel\P7.{\W5.61264; }platte strip\P8.{\W5.45059; }l-profiel\P9
  1
.{\W5.43478; }stopprofiel\P10.{\W3.59683; }ventilatieprofiel\P11.{\W4.24505; }plooistuk\P12.{\W3.90909; }crepi}
  7
1 Lezze 1-5
 73
     1
 44
1.0
1001
ACAD
1000
ACAD_MTEXT_COLUMN_INFO_BEGIN
1070
    75
1070
     2
1070
    79
1070
     0
1070
    76
1070
     1
1070
    78
1070
     0
1070
    48
1040
19.06756438161273
1070
    49
1040
10.00000129797029
1070
    50
1070
     1
1040
0.0
1000
ACAD_MTEXT_COLUMN_INFO_END
1000
MTEXTBEGIN
1070
    73
1070
     1
1070
    44
1040
1.0
1070
    74
1070
     0
1000
MTEXTEND
  0
INSERT
  5
229
330
70
100
AcDbEntity
  8
A03-_TEXT
100
AcDbBlockReference
 66
     1
  2
Vignet A4
 10
0.0
 20
0.0000000000000002
 30
0.0
  0
ATTRIB
  5
239
330
229
100
AcDbEntity
  8
A03-_TEXT
100
AcDbText
 10
0.1340993912614006
 20
0.4104920567209847
 30
0.0
 40
0.4800000000000001
  1
Horizontaal: Raam in gevelvlak
  7
variabelen
100
AcDbAttribute
  2
TEKNAAM
 70
     0
  0
ATTRIB
  5
23A
330
229
100
AcDbEntity
  8
A03-_TEXT
100
AcDbText
 10
15.51524609386687
 20
0.0867171186608588
 30
0.0
 40
0.13
  1
H 7
  7
platte tekst
100
AcDbAttribute
  2
BLAD
 70
     0
  0
ATTRIB
  5
23B
330
229
100
AcDbEntity
  8
A03-_TEXT
100
AcDbText
 10
19.2108743489778
 20
0.0867171186608588
 30
0.0
 40
0.13
  1
1/5
  7
platte tekst
100
AcDbAttribute
  2
SCHAAL
 70
     0
  0
SEQEND
  5
23C
330
229
100
AcDbEntity
  8
A03-_TEXT
  0
ENDSEC
  0
SECTION
  2
OBJECTS
  0
DICTIONARY
  5
C
330
0
100
AcDbDictionary
281
     1
  3
ACAD_CIP_PREVIOUS_PRODUCT_INFO
350
25D
  3
ACAD_COLOR
350
63
  3
ACAD_DETAILVIEWSTYLE
350
6A
  3
ACAD_GROUP
350
D
  3
ACAD_LAYOUT
350
62
  3
ACAD_MATERIAL
350
10
  3
ACAD_MLEADERSTYLE
350
66
  3
ACAD_MLINESTYLE
350
5F
  3
ACAD_PLOTSETTINGS
350
61
  3
ACAD_PLOTSTYLENAME
350
E
  3
ACAD_SCALELIST
350
42
  3
ACAD_SECTIONVIEWSTYLE
350
68
  3
ACAD_TABLESTYLE
350
64
  3
ACAD_VISUALSTYLE
350
29
  3
ACDB_RECOMPOSE_DATA
350
2E0
  3
AcDbVariableDictionary
350
244
  3
AcDsDecomposeData
350
2E7
  3
DWGPROPS
350
2E1
  0
DICTIONARY
  5
26C
330
2
100
AcDbDictionary
280
     1
281
     1
  3
ACAD_LAYERSTATES
360
26D
  0
DICTIONARY
  5
25E
330
54
100
AcDbDictionary
280
     1
281
     1
  3
ADSK_XREC_LAYER_RECONCILED
360
25F
  0
DICTIONARY
  5
D2
330
D1
100
AcDbDictionary
280
     1
281
     1
  3
ADSK_XREC_LAYER_RECONCILED
360
D3
  0
DICTIONARY
  5
260
330
DB
100
AcDbDictionary
280
     1
281
     1
  3
ADSK_XREC_LAYER_RECONCILED
360
261
  0
DICTIONARY
  5
DE
330
DD
100
AcDbDictionary
280
     1
281
     1
  3
ADSK_XREC_LAYER_RECONCILED
360
DF
  0
DICTIONARY
  5
262
330
E1
100
AcDbDictionary
280
     1
281
     1
  3
ADSK_XREC_LAYER_RECONCILED
360
263
  0
DICTIONARY
  5
264
330
E4
100
AcDbDictionary
280
     1
281
     1
  3
ADSK_XREC_LAYER_RECONCILED
360
265
  0
DICTIONARY
  5
266
330
10B
100
AcDbDictionary
280
     1
281
     1
  3
ADSK_XREC_LAYER_RECONCILED
360
267
  0
DICTIONARY
  5
14D
330
14C
100
AcDbDictionary
280
     1
281
     1
  3
ADSK_XREC_LAYER_RECONCILED
360
268
  0
DICTIONARY
  5
168
330
167
100
AcDbDictionary
280
     1
281
     1
  3
ADSK_XREC_LAYER_RECONCILED
360
169
  0
DICTIONARY
  5
20D
330
20C
100
AcDbDictionary
280
     1
281
     1
  3
ADSK_XREC_LAYER_RECONCILED
360
20E
  0
DICTIONARY
  5
222
330
70
100
AcDbDictionary
280
     1
281
     1
  3
ACAD_SORTENTS
360
228
  0
DICTIONARY
  5
163
330
162
100
AcDbDictionary
280
     1
281
     1
  3
ACAD_SORTENTS
360
223
  0
DICTIONARY
  5
22B
330
22A
100
AcDbDictionary
280
     1
281
     1
  3
ACAD_SORTENTS
360
22C
  0
DICTIONARY
  5
227
330
226
100
AcDbDictionary
280
     1
281
     1
  3
ACAD_MTEXT_2008_RT
360
2DF
  3
ACAD_MTEXT_RT
360
329
  0
XRECORD
  5
25D
102
{ACAD_REACTORS
330
C
102
}
330
C
100
AcDbXrecord
280
     1
300
ACDLT
300
2016
300
ACDLT_F_S
  0
DICTIONARY
  5
63
102
{ACAD_REACTORS
330
C
102
}
330
C
100
AcDbDictionary
281
     1
  0
DICTIONARY
  5
6A
102
{ACAD_REACTORS
330
C
102
}
330
C
100
AcDbDictionary
281
     1
  3
Imperial24
350
6B
  3
Metric50
350
250
  0
DICTIONARY
  5
D
102
{ACAD_REACTORS
330
C
102
}
330
C
100
AcDbDictionary
281
     1
  0
DICTIONARY
  5
62
102
{ACAD_REACTORS
330
C
102
}
330
C
100
AcDbDictionary
281
     1
  3
Layout1
350
6F
  3
Layout2
350
77
  3
Model
350
73
  0
DICTIONARY
  5
10
102
{ACAD_REACTORS
330
C
102
}
330
C
100
AcDbDictionary
281
     1
  3
ByBlock
350
19
  3
ByLayer
350
11
  3
Global
350
21
  0
DICTIONARY
  5
66
102
{ACAD_REACTORS
330
C
102
}
330
C
100
AcDbDictionary
281
     1
  3
Standard
350
67
  0
DICTIONARY
  5
5F
102
{ACAD_REACTORS
330
C
102
}
330
C
100
AcDbDictionary
281
     1
  3
Standard
350
60
  0
DICTIONARY
  5
61
102
{ACAD_REACTORS
330
C
102
}
330
C
100
AcDbDictionary
281
     1
  0
ACDBDICTIONARYWDFLT
  5
E
102
{ACAD_REACTORS
330
C
102
}
330
C
100
AcDbDictionary
281
     1
  3
Normal
350
F
100
AcDbDictionaryWithDefault
340
F
  0
DICTIONARY
  5
42
102
{ACAD_REACTORS
330
C
102
}
330
C
100
AcDbDictionary
281
     1
  3
*A1
350
C9
  3
*A2
350
CA
  3
*A3
350
CB
  3
*A4
350
CC
  3
*A5
350
CD
  3
A0
350
43
  3
A1
350
44
  3
A2
350
45
  3
A3
350
46
  3
A4
350
47
  3
A5
350
48
  3
A6
350
49
  3
A7
350
4A
  3
A8
350
4B
  3
A9
350
4C
  3
B0
350
4D
  3
B1
350
4E
  3
B2
350
4F
  3
B3
350
50
  3
B4
350
51
  3
B5
350
52
  3
B6
350
53
  0
DICTIONARY
  5
68
102
{ACAD_REACTORS
330
C
102
}
330
C
100
AcDbDictionary
281
     1
  3
Imperial24
350
69
  3
Metric50
350
24F
  0
DICTIONARY
  5
64
102
{ACAD_REACTORS
330
C
102
}
330
C
100
AcDbDictionary
281
     1
  3
Standard
350
65
  0
DICTIONARY
  5
29
102
{ACAD_REACTORS
330
C
102
}
330
C
100
AcDbDictionary
281
     1
  3
2dWireframe
350
2F
  3
Basic
350
2E
  3
Brighten
350
35
  3
ColorChange
350
39
  3
Conceptual
350
32
  3
Dim
350
34
  3
EdgeColorOff
350
41
  3
Facepattern
350
38
  3
Flat
350
2A
  3
FlatWithEdges
350
2B
  3
Gouraud
350
2C
  3
GouraudWithEdges
350
2D
  3
Hidden
350
31
  3
JitterOff
350
3F
  3
Linepattern
350
37
  3
OverhangOff
350
40
  3
Realistic
350
33
  3
Shaded
350
3E
  3
Shaded with edges
350
3D
  3
Shades of Gray
350
3A
  3
Sketchy
350
3B
  3
Thicken
350
36
  3
Wireframe
350
30
  3
X-Ray
350
3C
  0
XRECORD
  5
2E0
102
{ACAD_REACTORS
330
C
102
}
330
C
100
AcDbXrecord
280
     1
 90
        1
330
65
330
211
330
215
330
219
330
21B
330
21D
330
226
  0
DICTIONARY
  5
244
102
{ACAD_REACTORS
330
C
102
}
330
C
100
AcDbDictionary
281
     1
  3
ANNOALLVISIBLE
350
249
  3
CANNOSCALE
350
24A
  3
CMLEADERSTYLE
350
246
  3
CTABLESTYLE
350
245
  3
CVIEWDETAILSTYLE
350
247
  3
CVIEWSECTIONSTYLE
350
248
  3
DIMASSOC
350
28A
  3
HIDETEXT
350
289
  3
INDEXCTL
350
288
  3
LAYEREVAL
350
24C
  3
LAYERNOTIFY
350
24D
  3
LIGHTINGUNITS
350
24B
  3
MSLTSCALE
350
286
  3
SORTENTS
350
287
  3
XCLIPFRAME
350
28B
  0
DICTIONARY
  5
2E7
102
{ACAD_REACTORS
330
C
102
}
330
C
100
AcDbDictionary
281
     1
  3
AcDsRecords
350
2E9
  3
AcDsSchemas
350
2E8
1001
ACAD
1070
     2
  0
XRECORD
  5
2E1
102
{ACAD_REACTORS
330
C
102
}
330
C
100
AcDbXrecord
280
     1
  1
DWGPROPS COOKIE
  2

  3

  4

  6

  7

  8
alexander
  9

300
=
301
=
302
=
303
=
304
=
305
=
306
=
307
=
308
=
309
=
 40
0.000176099537037
 41
2457522.483976401
 42
2457522.484172662
  1

 90
        0
  0
DICTIONARY
  5
26D
102
{ACAD_REACTORS
330
26C
102
}
330
26C
100
AcDbDictionary
281
     1
  0
XRECORD
  5
25F
102
{ACAD_REACTORS
330
25E
102
}
330
25E
100
AcDbXrecord
280
     1
290
     1
  0
XRECORD
  5
D3
102
{ACAD_REACTORS
330
D2
102
}
330
D2
100
AcDbXrecord
280
     1
290
     1
  0
XRECORD
  5
261
102
{ACAD_REACTORS
330
260
102
}
330
260
100
AcDbXrecord
280
     1
290
     1
  0
XRECORD
  5
DF
102
{ACAD_REACTORS
330
DE
102
}
330
DE
100
AcDbXrecord
280
     1
290
     1
  0
XRECORD
  5
263
102
{ACAD_REACTORS
330
262
102
}
330
262
100
AcDbXrecord
280
     1
290
     1
  0
XRECORD
  5
265
102
{ACAD_REACTORS
330
264
102
}
330
264
100
AcDbXrecord
280
     1
290
     1
  0
XRECORD
  5
267
102
{ACAD_REACTORS
330
266
102
}
330
266
100
AcDbXrecord
280
     1
290
     1
  0
XRECORD
  5
268
102
{ACAD_REACTORS
330
14D
102
}
330
14D
100
AcDbXrecord
280
     1
290
     1
  0
XRECORD
  5
169
102
{ACAD_REACTORS
330
168
102
}
330
168
100
AcDbXrecord
280
     1
290
     1
  0
XRECORD
  5
20E
102
{ACAD_REACTORS
330
20D
102
}
330
20D
100
AcDbXrecord
280
     1
290
     1
  0
SORTENTSTABLE
  5
228
102
{ACAD_REACTORS
330
222
102
}
330
222
100
AcDbSortentsTable
330
70
331
14F
  5
150
331
10C
  5
10D
331
14B
  5
14E
331
108
  5
109
331
147
  5
148
331
104
  5
105
331
143
  5
144
331
100
  5
101
331
13F
  5
140
331
13B
  5
13C
331
FC
  5
FD
331
F8
  5
F9
331
137
  5
138
331
F4
  5
F5
331
133
  5
134
331
F0
  5
F1
331
EE
  5
EF
331
EA
  5
EB
331
21F
  5
DA
331
21B
  5
21D
331
12F
  5
130
331
12B
  5
12C
331
217
  5
219
331
127
  5
128
331
213
  5
215
331
123
  5
124
331
E6
  5
E7
331
E2
  5
E3
331
DA
  5
DC
331
20F
  5
211
331
20B
  5
210
331
15E
  5
15F
331
11F
  5
120
331
207
  5
209
331
11B
  5
11C
331
15A
  5
15B
331
203
  5
205
331
117
  5
118
331
156
  5
157
331
113
  5
114
331
152
  5
153
331
1FF
  5
200
331
14E
  5
14F
331
10F
  5
110
331
14A
  5
14B
331
107
  5
108
331
146
  5
147
331
103
  5
104
331
142
  5
143
331
13E
  5
13F
331
FF
  5
100
331
FB
  5
FC
331
13A
  5
13B
331
F7
  5
F8
331
136
  5
137
331
F3
  5
F4
331
132
  5
133
331
ED
  5
EE
331
E9
  5
EA
331
21E
  5
202
331
12E
  5
12F
331
21A
  5
21C
331
12A
  5
12B
331
216
  5
218
331
126
  5
127
331
212
  5
214
331
161
  5
1FE
331
122
  5
123
331
E5
  5
E6
331
20A
  5
20F
331
15D
  5
15E
331
11E
  5
11F
331
206
  5
208
331
11A
  5
11B
331
159
  5
15A
331
202
  5
204
331
116
  5
117
331
155
  5
156
331
112
  5
113
331
151
  5
152
331
1FE
  5
1FF
331
10E
  5
10F
331
10A
  5
10C
331
149
  5
14A
331
106
  5
107
331
145
  5
146
331
102
  5
103
331
141
  5
142
331
13D
  5
13E
331
FE
  5
FF
331
FA
  5
FB
331
139
  5
13A
331
F6
  5
F7
331
135
  5
136
331
F2
  5
F3
331
131
  5
132
331
EC
  5
ED
331
E8
  5
E9
331
21D
  5
21F
331
12D
  5
12E
331
219
  5
21B
331
129
  5
12A
331
215
  5
217
331
125
  5
126
331
211
  5
213
331
160
  5
161
331
121
  5
122
331
E0
  5
E2
331
DC
  5
E0
331
209
  5
20B
331
11D
  5
11E
331
15C
  5
15D
331
205
  5
207
331
119
  5
11A
331
158
  5
159
331
201
  5
203
331
115
  5
116
331
154
  5
155
331
150
  5
151
331
111
  5
112
331
10D
  5
10E
331
109
  5
10A
331
148
  5
149
331
105
  5
106
331
144
  5
145
331
101
  5
102
331
140
  5
141
331
13C
  5
13D
331
FD
  5
FE
331
F9
  5
FA
331
138
  5
139
331
F5
  5
F6
331
134
  5
135
331
F1
  5
F2
331
130
  5
131
331
EF
  5
F0
331
EB
  5
EC
331
21C
  5
21E
331
12C
  5
12D
331
218
  5
21A
331
128
  5
129
331
214
  5
216
331
124
  5
125
331
210
  5
212
331
120
  5
121
331
E7
  5
E8
331
E3
  5
E5
331
15F
  5
160
331
208
  5
20A
331
11C
  5
11D
331
15B
  5
15C
331
204
  5
206
331
118
  5
119
331
157
  5
158
331
200
  5
201
331
114
  5
115
331
153
  5
154
331
110
  5
111
  0
SORTENTSTABLE
  5
223
102
{ACAD_REACTORS
330
163
102
}
330
163
100
AcDbSortentsTable
330
162
  0
SORTENTSTABLE
  5
22C
102
{ACAD_REACTORS
330
22B
102
}
330
22B
100
AcDbSortentsTable
330
22A
  0
XRECORD
  5
2DF
102
{ACAD_REACTORS
330
227
102
}
330
227
100
AcDbXrecord
280
     1
 40
2488083.0
  1
\pxi-3,l3,t3;{\fRaleway Medium|b0|i0|c0|p34;1.^Iisolatie\P2.^Ihouten latwerk\P3.^Ibasisprofiel\P4.^Imato 1\P5.^Imato 3\P6.^Iovergangsprofiel\P7.^Iplatte strip\P8.^Il-profiel\P9.^Istopprofiel\P10.^Iventilatieprofiel\P11.^Iplooistuk\P12.^Icrepi}
  0
XRECORD
  5
329
102
{ACAD_REACTORS
330
227
102
}
330
227
100
AcDbXrecord
280
     1
 40
5383867.0
  1
\pi-0.6,l0.6,t0.6;{\fRaleway Medium|b0|i0|c0|p34;1.^Iisolatie\P2.^Ihouten latwerk\P3.^Ibasisprofiel\P4.^Imato 1\P5.^Imato 3\P6.^Iovergangsprofiel\P7.^Iplatte strip\P8.^Il-profiel\P9.^Istopprofiel\P10.^Iventilatieprofiel\P11.^Iplooistuk\P12.^Icrepi}
  0
ACDBDETAILVIEWSTYLE
  5
6B
102
{ACAD_XDICTIONARY
360
23F
102
}
102
{ACAD_REACTORS
330
6A
102
}
330
6A
100
AcDbModelDocViewStyle
 70
     0
  3
Imperial24
290
     0
100
AcDbDetailViewStyle
 70
     0
 71
     0
 90
        3
 71
     1
340
55
 40
0.24
340
0
 40
0.24
300

 40
0.36
280
     3
 71
     2
340
5D
 90
       25
 71
     3
340
55
 40
0.24
 90
        1
 40
0.75
 90
        1
300
%<\AcVar ViewType \f "%tc1">% %<\AcVar ViewDetailId>%\PSCALE %<\AcVar ViewScale \f "%sn">%
 71
     4
340
5D
 90
       25
340
5D
 90
       25
280
     0
  0
ACDBDETAILVIEWSTYLE
  5
250
102
{ACAD_XDICTIONARY
360
32C
102
}
102
{ACAD_REACTORS
330
6A
102
}
330
6A
100
AcDbModelDocViewStyle
 70
     0
  3
Metric50
290
     0
100
AcDbDetailViewStyle
 70
     0
 71
     0
 90
        3
 71
     1
340
55
 40
5.0
340
0
 40
5.0
300

 40
0.0
280
     1
 71
     2
340
5D
 90
       25
 71
     3
340
55
 40
5.0
 90
        0
 40
15.0
 90
        1
300
%<\AcVar ViewDetailId>% (%<\AcVar ViewScale \f "%sn">%)
 71
     4
340
5D
 90
       25
340
5D
 90
       25
280
     0
  0
LAYOUT
  5
6F
102
{ACAD_XDICTIONARY
360
323
102
}
102
{ACAD_REACTORS
330
62
102
}
330
62
100
AcDbPlotSettings
  1

  2
Xerox Phaser 6140DN
  4

  6

 40
0.0
 41
0.0
 42
0.0
 43
0.0
 44
0.0
 45
0.0
 46
0.0
 47
0.0
 48
0.0
 49
0.0
140
0.0
141
0.0
142
1.0
143
1.0
 70
   688
 72
     0
 73
     0
 74
     5
  7

 75
    16
147
1.0
148
0.0
149
0.0
100
AcDbLayout
  1
Layout1
 70
     1
 71
     1
 10
0.0
 20
0.0
 11
12.0
 21
9.0
 12
0.0
 22
0.0
 32
0.0
 14
1.000000000000000E+20
 24
1.000000000000000E+20
 34
1.000000000000000E+20
 15
-1.000000000000000E+20
 25
-1.000000000000000E+20
 35
-1.000000000000000E+20
146
0.0
 13
0.0
 23
0.0
 33
0.0
 16
1.0
 26
0.0
 36
0.0
 17
0.0
 27
1.0
 37
0.0
 76
     0
330
6C
  0
LAYOUT
  5
77
102
{ACAD_XDICTIONARY
360
327
102
}
102
{ACAD_REACTORS
330
62
102
}
330
62
100
AcDbPlotSettings
  1

  2
Xerox Phaser 6140DN
  4

  6

 40
0.0
 41
0.0
 42
0.0
 43
0.0
 44
0.0
 45
0.0
 46
0.0
 47
0.0
 48
0.0
 49
0.0
140
0.0
141
0.0
142
1.0
143
1.0
 70
   688
 72
     0
 73
     0
 74
     5
  7

 75
    16
147
1.0
148
0.0
149
0.0
100
AcDbLayout
  1
Layout2
 70
     1
 71
     2
 10
0.0
 20
0.0
 11
12.0
 21
9.0
 12
0.0
 22
0.0
 32
0.0
 14
0.0
 24
0.0
 34
0.0
 15
0.0
 25
0.0
 35
0.0
146
0.0
 13
0.0
 23
0.0
 33
0.0
 16
1.0
 26
0.0
 36
0.0
 17
0.0
 27
1.0
 37
0.0
 76
     0
330
74
  0
LAYOUT
  5
73
102
{ACAD_XDICTIONARY
360
325
102
}
102
{ACAD_REACTORS
330
62
102
}
330
62
100
AcDbPlotSettings
  1

  2
DWG To PDF.pc3
  4
ISO_expand_A4_(210.00_x_297.00_MM)
  6

 40
5.793749809265136
 41
10.79374980926513
 42
5.793746948242187
 43
10.79376220703125
 44
210.0
 45
297.0
 46
0.0
 47
0.0
 48
0.0
 49
0.0
140
0.0
141
0.0
142
1.0
143
0.260428183553025
 70
 11952
 72
     1
 73
     0
 74
     0
  7
polo_20.ctb
 75
     0
147
3.839830184110595
148
15.9210864438446
149
0.1072527212152341
100
AcDbLayout
  1
Model
 70
     1
 71
     0
 10
0.0
 20
0.0
 11
12.0
 21
9.0
 12
0.0
 22
0.0
 32
0.0
 14
0.0
 24
0.0
 34
0.0
 15
0.0
 25
0.0
 35
0.0
146
0.0
 13
0.0
 23
0.0
 33
0.0
 16
1.0
 26
0.0
 36
0.0
 17
0.0
 27
1.0
 37
0.0
 76
     0
330
70
331
57
1001
ACAD_PSEXT
1000
DWG To PDF.pc3
1000
DWG To PDF
1000
File
1000

1070
     0
  0
MATERIAL
  5
19
102
{ACAD_XDICTIONARY
360
1A
102
}
102
{ACAD_REACTORS
330
10
102
}
330
10
100
AcDbMaterial
  1
ByBlock
 72
     0
 43
0.0208333333333333
 43
0.0
 43
0.0
 43
0.0
 43
0.0
 43
0.0208333333333333
 43
0.0
 43
0.0
 43
0.0
 43
0.0
 43
1.0
 43
0.0
 43
0.0
 43
0.0
 43
0.0
 43
1.0
 77
     0
 47
0.0208333333333333
 47
0.0
 47
0.0
 47
0.0
 47
0.0
 47
0.0208333333333333
 47
0.0
 47
0.0
 47
0.0
 47
0.0
 47
1.0
 47
0.0
 47
0.0
 47
0.0
 47
0.0
 47
1.0
171
     0
 49
0.0208333333333333
 49
0.0
 49
0.0
 49
0.0
 49
0.0
 49
0.0208333333333333
 49
0.0
 49
0.0
 49
0.0
 49
0.0
 49
1.0
 49
0.0
 49
0.0
 49
0.0
 49
0.0
 49
1.0
175
     0
142
0.0208333333333333
142
0.0
142
0.0
142
0.0
142
0.0
142
0.0208333333333333
142
0.0
142
0.0
142
0.0
142
0.0
142
1.0
142
0.0
142
0.0
142
0.0
142
0.0
142
1.0
179
     0
144
0.0208333333333333
144
0.0
144
0.0
144
0.0
144
0.0
144
0.0208333333333333
144
0.0
144
0.0
144
0.0
144
0.0
144
1.0
144
0.0
144
0.0
144
0.0
144
0.0
144
1.0
147
0.0208333333333333
147
0.0
147
0.0
147
0.0
147
0.0
147
0.0208333333333333
147
0.0
147
0.0
147
0.0
147
0.0
147
1.0
147
0.0
147
0.0
147
0.0
147
0.0
147
1.0
  0
MATERIAL
  5
11
102
{ACAD_XDICTIONARY
360
12
102
}
102
{ACAD_REACTORS
330
10
102
}
330
10
100
AcDbMaterial
  1
ByLayer
 72
     0
 43
0.0208333333333333
 43
0.0
 43
0.0
 43
0.0
 43
0.0
 43
0.0208333333333333
 43
0.0
 43
0.0
 43
0.0
 43
0.0
 43
1.0
 43
0.0
 43
0.0
 43
0.0
 43
0.0
 43
1.0
 77
     0
 47
0.0208333333333333
 47
0.0
 47
0.0
 47
0.0
 47
0.0
 47
0.0208333333333333
 47
0.0
 47
0.0
 47
0.0
 47
0.0
 47
1.0
 47
0.0
 47
0.0
 47
0.0
 47
0.0
 47
1.0
171
     0
 49
0.0208333333333333
 49
0.0
 49
0.0
 49
0.0
 49
0.0
 49
0.0208333333333333
 49
0.0
 49
0.0
 49
0.0
 49
0.0
 49
1.0
 49
0.0
 49
0.0
 49
0.0
 49
0.0
 49
1.0
175
     0
142
0.0208333333333333
142
0.0
142
0.0
142
0.0
142
0.0
142
0.0208333333333333
142
0.0
142
0.0
142
0.0
142
0.0
142
1.0
142
0.0
142
0.0
142
0.0
142
0.0
142
1.0
179
     0
144
0.0208333333333333
144
0.0
144
0.0
144
0.0
144
0.0
144
0.0208333333333333
144
0.0
144
0.0
144
0.0
144
0.0
144
1.0
144
0.0
144
0.0
144
0.0
144
0.0
144
1.0
147
0.0208333333333333
147
0.0
147
0.0
147
0.0
147
0.0
147
0.0208333333333333
147
0.0
147
0.0
147
0.0
147
0.0
147
1.0
147
0.0
147
0.0
147
0.0
147
0.0
147
1.0
  0
MATERIAL
  5
21
102
{ACAD_XDICTIONARY
360
22
102
}
102
{ACAD_REACTORS
330
10
102
}
330
10
100
AcDbMaterial
  1
Global
 72
     0
 43
0.0208333333333333
 43
0.0
 43
0.0
 43
0.0
 43
0.0
 43
0.0208333333333333
 43
0.0
 43
0.0
 43
0.0
 43
0.0
 43
1.0
 43
0.0
 43
0.0
 43
0.0
 43
0.0
 43
1.0
 77
     0
 47
0.0208333333333333
 47
0.0
 47
0.0
 47
0.0
 47
0.0
 47
0.0208333333333333
 47
0.0
 47
0.0
 47
0.0
 47
0.0
 47
1.0
 47
0.0
 47
0.0
 47
0.0
 47
0.0
 47
1.0
171
     0
 49
0.0208333333333333
 49
0.0
 49
0.0
 49
0.0
 49
0.0
 49
0.0208333333333333
 49
0.0
 49
0.0
 49
0.0
 49
0.0
 49
1.0
 49
0.0
 49
0.0
 49
0.0
 49
0.0
 49
1.0
175
     0
142
0.0208333333333333
142
0.0
142
0.0
142
0.0
142
0.0
142
0.0208333333333333
142
0.0
142
0.0
142
0.0
142
0.0
142
1.0
142
0.0
142
0.0
142
0.0
142
0.0
142
1.0
179
     0
144
0.0208333333333333
144
0.0
144
0.0
144
0.0
144
0.0
144
0.0208333333333333
144
0.0
144
0.0
144
0.0
144
0.0
144
1.0
144
0.0
144
0.0
144
0.0
144
0.0
144
1.0
147
0.0208333333333333
147
0.0
147
0.0
147
0.0
147
0.0
147
0.0208333333333333
147
0.0
147
0.0
147
0.0
147
0.0
147
1.0
147
0.0
147
0.0
147
0.0
147
0.0
147
1.0
  0
MLEADERSTYLE
  5
67
102
{ACAD_XDICTIONARY
360
31F
102
}
102
{ACAD_REACTORS
330
66
102
}
330
66
100
AcDbMLeaderStyle
170
     2
171
     1
172
     0
 90
        2
 40
0.0
 41
0.0
173
     1
 91
-1056964608
340
5B
 92
       -2
290
     1
 42
0.09
291
     1
 43
0.36
  3
Standard
 44
0.18
300

342
55
174
     1
178
     6
175
     1
176
     0
 93
-1056964608
 45
0.18
292
     0
297
     0
 46
0.18
 94
-1056964608
 47
1.0
 49
1.0
140
1.0
293
     1
141
0.0
294
     1
177
     0
142
1.0
295
     0
296
     0
143
0.125
1001
ACAD_MLEADERVER
1070
     2
  0
MLINESTYLE
  5
60
102
{ACAD_REACTORS
330
5F
102
}
330
5F
100
AcDbMlineStyle
  2
STANDARD
 70
     0
  3

 62
   256
 51
90.0
 52
90.0
 71
     2
 49
0.5
 62
   256
  6
BYLAYER
 49
-0.5
 62
   256
  6
BYLAYER
  0
ACDBPLACEHOLDER
  5
F
102
{ACAD_REACTORS
330
E
102
}
330
E
  0
SCALE
  5
C9
102
{ACAD_REACTORS
330
42
102
}
330
42
100
AcDbScale
 70
     0
300
1:50_1
140
1.0
141
50.0
290
     0
  0
SCALE
  5
CA
102
{ACAD_REACTORS
330
42
102
}
330
42
100
AcDbScale
 70
     0
300
1:10_1
140
1.0
141
1.0
290
     0
  0
SCALE
  5
CB
102
{ACAD_REACTORS
330
42
102
}
330
42
100
AcDbScale
 70
     0
300
1:500
140
1.0
141
500.0
290
     0
  0
SCALE
  5
CC
102
{ACAD_REACTORS
330
42
102
}
330
42
100
AcDbScale
 70
     0
300
1:10000
140
1.0
141
10000.0
290
     0
  0
SCALE
  5
CD
102
{ACAD_REACTORS
330
42
102
}
330
42
100
AcDbScale
 70
     0
300
1:2500
140
1.0
141
2500.0
290
     0
  0
SCALE
  5
43
102
{ACAD_REACTORS
330
42
102
}
330
42
100
AcDbScale
 70
     0
300
1:1
140
1.0
141
1.0
290
     1
  0
SCALE
  5
44
102
{ACAD_REACTORS
330
42
102
}
330
42
100
AcDbScale
 70
     0
300
1:2
140
1.0
141
2.0
290
     0
  0
SCALE
  5
45
102
{ACAD_REACTORS
330
42
102
}
330
42
100
AcDbScale
 70
     0
300
1:4
140
1.0
141
4.0
290
     0
  0
SCALE
  5
46
102
{ACAD_REACTORS
330
42
102
}
330
42
100
AcDbScale
 70
     0
300
1:5
140
1.0
141
5.0
290
     0
  0
SCALE
  5
47
102
{ACAD_REACTORS
330
42
102
}
330
42
100
AcDbScale
 70
     0
300
1:8
140
1.0
141
8.0
290
     0
  0
SCALE
  5
48
102
{ACAD_REACTORS
330
42
102
}
330
42
100
AcDbScale
 70
     0
300
1:10
140
1.0
141
10.0
290
     0
  0
SCALE
  5
49
102
{ACAD_REACTORS
330
42
102
}
330
42
100
AcDbScale
 70
     0
300
1:16
140
1.0
141
16.0
290
     0
  0
SCALE
  5
4A
102
{ACAD_REACTORS
330
42
102
}
330
42
100
AcDbScale
 70
     0
300
1:20
140
1.0
141
20.0
290
     0
  0
SCALE
  5
4B
102
{ACAD_REACTORS
330
42
102
}
330
42
100
AcDbScale
 70
     0
300
1:30
140
1.0
141
30.0
290
     0
  0
SCALE
  5
4C
102
{ACAD_REACTORS
330
42
102
}
330
42
100
AcDbScale
 70
     0
300
1:40
140
1.0
141
40.0
290
     0
  0
SCALE
  5
4D
102
{ACAD_REACTORS
330
42
102
}
330
42
100
AcDbScale
 70
     0
300
1:50
140
1.0
141
50.0
290
     0
  0
SCALE
  5
4E
102
{ACAD_REACTORS
330
42
102
}
330
42
100
AcDbScale
 70
     0
300
1:100
140
1.0
141
100.0
290
     0
  0
SCALE
  5
4F
102
{ACAD_REACTORS
330
42
102
}
330
42
100
AcDbScale
 70
     0
300
2:1
140
2.0
141
1.0
290
     0
  0
SCALE
  5
50
102
{ACAD_REACTORS
330
42
102
}
330
42
100
AcDbScale
 70
     0
300
4:1
140
4.0
141
1.0
290
     0
  0
SCALE
  5
51
102
{ACAD_REACTORS
330
42
102
}
330
42
100
AcDbScale
 70
     0
300
8:1
140
8.0
141
1.0
290
     0
  0
SCALE
  5
52
102
{ACAD_REACTORS
330
42
102
}
330
42
100
AcDbScale
 70
     0
300
10:1
140
10.0
141
1.0
290
     0
  0
SCALE
  5
53
102
{ACAD_REACTORS
330
42
102
}
330
42
100
AcDbScale
 70
     0
300
100:1
140
100.0
141
1.0
290
     0
  0
ACDBSECTIONVIEWSTYLE
  5
69
102
{ACAD_XDICTIONARY
360
23D
102
}
102
{ACAD_REACTORS
330
68
102
}
330
68
100
AcDbModelDocViewStyle
 70
     0
  3
Imperial24
290
     0
100
AcDbSectionViewStyle
 70
     0
 71
     0
 90
       78
 71
     1
340
55
 40
0.24
340
0
340
0
 40
0.24
300
I, O, Q, S, X, Z
 40
0.48
 90
        3
 40
0.18
 90
        1
 71
     2
340
5D
 90
       25
340
5D
 90
       50
 40
0.24
 40
0.0
 40
0.24
 71
     3
340
55
 40
0.24
 90
        1
 40
0.75
 90
        1
300
%<\AcVar ViewType \f "%tc1">% %<\AcVar ViewSectionStartId>%-%<\AcVar ViewSectionEndId>%\PSCALE %<\AcVar ViewScale \f "%sn">%
 71
     4
300
ANSI31
 40
1.0
 90
        0
290
     0
290
     0
 90
        6
 40
0.0
 40
1.570796326794896
 40
0.2617993877991494
 40
1.308996938995747
 40
-0.2617993877991494
 40
1.832595714594046
  0
ACDBSECTIONVIEWSTYLE
  5
24F
102
{ACAD_XDICTIONARY
360
32A
102
}
102
{ACAD_REACTORS
330
68
102
}
330
68
100
AcDbModelDocViewStyle
 70
     0
  3
Metric50
290
     0
100
AcDbSectionViewStyle
 70
     0
 71
     0
 90
      102
 71
     1
340
55
 40
5.0
340
0
340
0
 40
5.0
300
I, O, Q, S, X, Z
 40
10.0
 90
        0
 40
2.5
 90
        0
 71
     2
340
5D
 90
       25
340
5D
 90
       50
 40
5.0
 40
2.5
 40
5.0
 71
     3
340
55
 40
5.0
 90
        0
 40
15.0
 90
        1
300
%<\AcVar ViewSectionStartId>%-%<\AcVar ViewSectionEndId>% (%<\AcVar ViewScale \f "%sn">%)
 71
     4
300
ANSI31
 40
1.0
 90
        0
290
     0
290
     0
 90
        6
 40
0.0
 40
1.570796326794896
 40
0.2617993877991494
 40
1.308996938995747
 40
-0.2617993877991494
 40
1.832595714594046
  0
TABLESTYLE
  5
65
102
{ACAD_XDICTIONARY
360
2DD
102
}
102
{ACAD_REACTORS
330
64
102
}
330
64
100
AcDbTableStyle
  3
Standard
 70
     0
 71
     3
 40
0.06
 41
0.06
280
     0
281
     0
  7
Standard
140
0.18
170
     2
 62
     0
 63
     7
283
     0
274
    -2
284
     1
 64
     0
275
    -2
285
     1
 65
     0
276
    -2
286
     1
 66
     0
277
    -2
287
     1
 67
     0
278
    -2
288
     1
 68
     0
279
    -2
289
     1
 69
     0
  7
Standard
140
0.25
170
     5
 62
     0
 63
     7
283
     0
274
    -2
284
     1
 64
     0
275
    -2
285
     1
 65
     0
276
    -2
286
     1
 66
     0
277
    -2
287
     1
 67
     0
278
    -2
288
     1
 68
     0
279
    -2
289
     1
 69
     0
  7
Standard
140
0.18
170
     5
 62
     0
 63
     7
283
     0
274
    -2
284
     1
 64
     0
275
    -2
285
     1
 65
     0
276
    -2
286
     1
 66
     0
277
    -2
287
     1
 67
     0
278
    -2
288
     1
 68
     0
279
    -2
289
     1
 69
     0
  0
VISUALSTYLE
  5
2F
102
{ACAD_XDICTIONARY
360
2F7
102
}
102
{ACAD_REACTORS
330
29
102
}
330
29
100
AcDbVisualStyle
  2
2dWireframe
 70
     4
 71
     0
 72
     2
 73
     0
 90
        0
 40
-0.6
 41
-30.0
 62
     5
 63
     7
 74
     1
 91
        4
 64
     7
 65
   257
 75
     1
175
     1
 42
1.0
 92
        0
 66
   257
 43
1.0
 76
     1
 77
     6
 78
     2
 67
     7
 79
     5
170
     0
171
     0
290
     0
174
     0
 93
        1
 44
0.0
173
     0
291
     0
 45
0.0
1001
ACAD
1000
AcDbSavedByObjectVersion
1070
     0
  0
VISUALSTYLE
  5
2E
102
{ACAD_XDICTIONARY
360
2F5
102
}
102
{ACAD_REACTORS
330
29
102
}
330
29
100
AcDbVisualStyle
  2
Basic
 70
     7
 71
     1
 72
     0
 73
     1
 90
        0
 40
-0.6
 41
-30.0
 62
     5
 63
     7
 74
     0
 91
        4
 64
     7
 65
   257
 75
     1
175
     1
 42
1.0
 92
        8
 66
     7
 43
1.0
 76
     1
 77
     6
 78
     2
 67
     7
 79
     5
170
     0
171
     0
290
     0
174
     0
 93
        1
 44
0.0
173
     0
291
     1
 45
0.0
1001
ACAD
1000
AcDbSavedByObjectVersion
1070
     0
  0
VISUALSTYLE
  5
35
102
{ACAD_XDICTIONARY
360
303
102
}
102
{ACAD_REACTORS
330
29
102
}
330
29
100
AcDbVisualStyle
  2
Brighten
 70
    12
 71
     2
 72
     2
 73
     0
 90
        0
 40
-0.6
 41
-30.0
 62
     5
 63
     7
 74
     1
 91
        4
 64
     7
 65
   257
 75
     1
175
     1
 42
1.0
 92
        8
 66
     7
 43
1.0
 76
     1
 77
     6
 78
     2
 67
     7
 79
     5
170
     0
171
     0
290
     0
174
     0
 93
        1
 44
50.0
173
     0
291
     1
 45
0.0
1001
ACAD
1000
AcDbSavedByObjectVersion
1070
     0
  0
VISUALSTYLE
  5
39
102
{ACAD_XDICTIONARY
360
30B
102
}
102
{ACAD_REACTORS
330
29
102
}
330
29
100
AcDbVisualStyle
  2
ColorChange
 70
    16
 71
     2
 72
     2
 73
     3
 90
        0
 40
-0.6
 41
-30.0
 62
     5
 63
     8
 74
     1
 91
        4
 64
     7
 65
   257
 75
     1
175
     1
 42
1.0
 92
        8
 66
     8
 43
1.0
 76
     1
 77
     6
 78
     2
 67
     7
 79
     5
170
     0
171
     0
290
     0
174
     0
 93
        1
 44
0.0
173
     0
291
     1
 45
0.0
1001
ACAD
1000
AcDbSavedByObjectVersion
1070
     0
  0
VISUALSTYLE
  5
32
102
{ACAD_XDICTIONARY
360
2FD
102
}
102
{ACAD_REACTORS
330
29
102
}
330
29
100
AcDbVisualStyle
  2
Conceptual
 70
     9
 71
     3
 72
     2
 73
     0
 90
        0
 40
-0.6
 41
-30.0
 62
     5
 63
     7
 74
     2
 91
        2
 64
     7
 65
   257
 75
     1
175
     1
 42
179.0
 92
        8
 66
     7
 43
1.0
 76
     1
 77
     6
 78
     2
 67
     7
 79
     3
170
     0
171
     0
290
     0
174
     0
 93
        1
 44
0.0
173
     0
291
     0
 45
0.0
1001
ACAD
1000
AcDbSavedByObjectVersion
1070
     0
  0
VISUALSTYLE
  5
34
102
{ACAD_XDICTIONARY
360
301
102
}
102
{ACAD_REACTORS
330
29
102
}
330
29
100
AcDbVisualStyle
  2
Dim
 70
    11
 71
     2
 72
     2
 73
     0
 90
        0
 40
-0.6
 41
-30.0
 62
     5
 63
     7
 74
     1
 91
        4
 64
     7
 65
   257
 75
     1
175
     1
 42
1.0
 92
        8
 66
     7
 43
1.0
 76
     1
 77
     6
 78
     2
 67
     7
 79
     5
170
     0
171
     0
290
     0
174
     0
 93
        1
 44
-50.0
173
     0
291
     1
 45
0.0
1001
ACAD
1000
AcDbSavedByObjectVersion
1070
     0
  0
VISUALSTYLE
  5
41
102
{ACAD_XDICTIONARY
360
31B
102
}
102
{ACAD_REACTORS
330
29
102
}
330
29
100
AcDbVisualStyle
  2
EdgeColorOff
 70
    22
 71
     2
 72
     2
 73
     0
 90
        0
 40
-0.6
 41
-30.0
 62
     5
 63
     7
 74
     1
 91
        4
 64
     7
 65
   257
 75
     1
175
     1
 42
1.0
 92
        8
 66
     7
 43
1.0
 76
     1
 77
     6
 78
     2
 67
     7
 79
     5
170
     0
171
     0
290
     0
174
     0
 93
        1
 44
0.0
173
     0
291
     1
 45
0.0
1001
ACAD
1000
AcDbSavedByObjectVersion
1070
     0
  0
VISUALSTYLE
  5
38
102
{ACAD_XDICTIONARY
360
309
102
}
102
{ACAD_REACTORS
330
29
102
}
330
29
100
AcDbVisualStyle
  2
Facepattern
 70
    15
 71
     2
 72
     2
 73
     0
 90
        0
 40
-0.6
 41
-30.0
 62
     5
 63
     7
 74
     1
 91
        4
 64
     7
 65
   257
 75
     1
175
     1
 42
1.0
 92
        8
 66
     7
 43
1.0
 76
     1
 77
     6
 78
     2
 67
     7
 79
     5
170
     0
171
     0
290
     0
174
     0
 93
        1
 44
0.0
173
     0
291
     1
 45
0.0
1001
ACAD
1000
AcDbSavedByObjectVersion
1070
     0
  0
VISUALSTYLE
  5
2A
102
{ACAD_XDICTIONARY
360
2ED
102
}
102
{ACAD_REACTORS
330
29
102
}
330
29
100
AcDbVisualStyle
  2
Flat
 70
     0
 71
     2
 72
     1
 73
     1
 90
        2
 40
-0.6
 41
30.0
 62
     5
 63
     7
 74
     0
 91
        0
 64
     7
 65
   257
 75
     1
175
     1
 42
1.0
 92
        8
 66
     7
 43
1.0
 76
     1
 77
     6
 78
     2
 67
     7
 79
     5
170
     0
171
     0
290
     0
174
     0
 93
       13
 44
0.0
173
     0
291
     1
 45
0.0
1001
ACAD
1000
AcDbSavedByObjectVersion
1070
     0
  0
VISUALSTYLE
  5
2B
102
{ACAD_XDICTIONARY
360
2EF
102
}
102
{ACAD_REACTORS
330
29
102
}
330
29
100
AcDbVisualStyle
  2
FlatWithEdges
 70
     1
 71
     2
 72
     1
 73
     1
 90
        2
 40
-0.6
 41
30.0
 62
     5
 63
     7
 74
     1
 91
        0
 64
     7
 65
   257
 75
     1
175
     1
 42
1.0
 92
        0
 66
   257
 43
1.0
 76
     1
 77
     6
 78
     2
 67
     7
 79
     5
170
     0
171
     0
290
     0
174
     0
 93
       13
 44
0.0
173
     0
291
     1
 45
0.0
1001
ACAD
1000
AcDbSavedByObjectVersion
1070
     0
  0
VISUALSTYLE
  5
2C
102
{ACAD_XDICTIONARY
360
2F1
102
}
102
{ACAD_REACTORS
330
29
102
}
330
29
100
AcDbVisualStyle
  2
Gouraud
 70
     2
 71
     2
 72
     2
 73
     1
 90
        2
 40
-0.6
 41
30.0
 62
     5
 63
     7
 74
     0
 91
        0
 64
     7
 65
   257
 75
     1
175
     1
 42
1.0
 92
        0
 66
     7
 43
1.0
 76
     1
 77
     6
 78
     2
 67
     7
 79
     5
170
     0
171
     0
290
     0
174
     0
 93
       13
 44
0.0
173
     0
291
     1
 45
0.0
1001
ACAD
1000
AcDbSavedByObjectVersion
1070
     0
  0
VISUALSTYLE
  5
2D
102
{ACAD_XDICTIONARY
360
2F3
102
}
102
{ACAD_REACTORS
330
29
102
}
330
29
100
AcDbVisualStyle
  2
GouraudWithEdges
 70
     3
 71
     2
 72
     2
 73
     1
 90
        2
 40
-0.6
 41
30.0
 62
     5
 63
     7
 74
     1
 91
        0
 64
     7
 65
   257
 75
     1
175
     1
 42
1.0
 92
        0
 66
   257
 43
1.0
 76
     1
 77
     6
 78
     2
 67
     7
 79
     5
170
     0
171
     0
290
     0
174
     0
 93
       13
 44
0.0
173
     0
291
     1
 45
0.0
1001
ACAD
1000
AcDbSavedByObjectVersion
1070
     0
  0
VISUALSTYLE
  5
31
102
{ACAD_XDICTIONARY
360
2FB
102
}
102
{ACAD_REACTORS
330
29
102
}
330
29
100
AcDbVisualStyle
  2
Hidden
 70
     6
 71
     1
 72
     2
 73
     2
 90
        0
 40
-0.6
 41
-30.0
 62
     5
 63
     7
 74
     2
 91
        2
 64
     7
 65
   257
 75
     2
175
     1
 42
40.0
 92
        0
 66
   257
 43
1.0
 76
     1
 77
     6
 78
     2
 67
     7
 79
     3
170
     0
171
     0
290
     0
174
     0
 93
        1
 44
0.0
173
     0
291
     0
 45
0.0
1001
ACAD
1000
AcDbSavedByObjectVersion
1070
     0
  0
VISUALSTYLE
  5
3F
102
{ACAD_XDICTIONARY
360
317
102
}
102
{ACAD_REACTORS
330
29
102
}
330
29
100
AcDbVisualStyle
  2
JitterOff
 70
    20
 71
     2
 72
     2
 73
     0
 90
        0
 40
-0.6
 41
-30.0
 62
     5
 63
     7
 74
     1
 91
        4
 64
     7
 65
   257
 75
     1
175
     1
 42
1.0
 92
       10
 66
     7
 43
1.0
 76
     1
 77
     6
 78
     2
 67
     7
 79
     5
170
     0
171
     0
290
     0
174
     0
 93
        1
 44
0.0
173
     0
291
     1
 45
0.0
1001
ACAD
1000
AcDbSavedByObjectVersion
1070
     0
  0
VISUALSTYLE
  5
37
102
{ACAD_XDICTIONARY
360
307
102
}
102
{ACAD_REACTORS
330
29
102
}
330
29
100
AcDbVisualStyle
  2
Linepattern
 70
    14
 71
     2
 72
     2
 73
     0
 90
        0
 40
-0.6
 41
-30.0
 62
     5
 63
     7
 74
     1
 91
        4
 64
     7
 65
   257
 75
     7
175
     7
 42
1.0
 92
        8
 66
     7
 43
1.0
 76
     1
 77
     6
 78
     2
 67
     7
 79
     5
170
     0
171
     0
290
     0
174
     0
 93
        1
 44
0.0
173
     0
291
     1
 45
0.0
1001
ACAD
1000
AcDbSavedByObjectVersion
1070
     0
  0
VISUALSTYLE
  5
40
102
{ACAD_XDICTIONARY
360
319
102
}
102
{ACAD_REACTORS
330
29
102
}
330
29
100
AcDbVisualStyle
  2
OverhangOff
 70
    21
 71
     2
 72
     2
 73
     0
 90
        0
 40
-0.6
 41
-30.0
 62
     5
 63
     7
 74
     1
 91
        4
 64
     7
 65
   257
 75
     1
175
     1
 42
1.0
 92
        9
 66
     7
 43
1.0
 76
     1
 77
     6
 78
     2
 67
     7
 79
     5
170
     0
171
     0
290
     0
174
     0
 93
        1
 44
0.0
173
     0
291
     1
 45
0.0
1001
ACAD
1000
AcDbSavedByObjectVersion
1070
     0
  0
VISUALSTYLE
  5
33
102
{ACAD_XDICTIONARY
360
2FF
102
}
102
{ACAD_REACTORS
330
29
102
}
330
29
100
AcDbVisualStyle
  2
Realistic
 70
     8
 71
     2
 72
     3
 73
     0
 90
        2
 40
-0.6
 41
30.0
 62
     5
 63
     7
 74
     0
 91
        0
 64
     7
 65
   257
 75
     1
175
     1
 42
1.0
 92
        8
 66
   257
 43
1.0
 76
     1
 77
     6
 78
     2
 67
     7
 79
     3
170
     0
171
     0
290
     0
174
     0
 93
       13
 44
0.0
173
     0
291
     0
 45
0.0
1001
ACAD
1000
AcDbSavedByObjectVersion
1070
     0
  0
VISUALSTYLE
  5
3E
102
{ACAD_XDICTIONARY
360
315
102
}
102
{ACAD_REACTORS
330
29
102
}
330
29
100
AcDbVisualStyle
  2
Shaded
 70
    27
 71
     2
 72
     2
 73
     1
 90
        2
 40
-0.6
 41
30.0
 62
     5
 63
     7
 74
     0
 91
        4
 64
     7
 65
   257
 75
     1
175
     1
 42
1.0
 92
        8
 66
   257
 43
1.0
 76
     1
 77
     6
 78
     2
 67
     8
 79
     3
170
     0
171
     0
290
     0
174
     0
 93
        5
 44
0.0
173
     0
291
     0
 45
0.0
1001
ACAD
1000
AcDbSavedByObjectVersion
1070
     0
  0
VISUALSTYLE
  5
3D
102
{ACAD_XDICTIONARY
360
313
102
}
102
{ACAD_REACTORS
330
29
102
}
330
29
100
AcDbVisualStyle
  2
Shaded with edges
 70
    26
 71
     2
 72
     2
 73
     1
 90
        2
 40
-0.6
 41
30.0
 62
     5
 63
     7
 74
     1
 91
       10
 64
     7
 65
   257
 75
     2
175
     1
 42
1.0
 92
        8
 66
   257
 43
1.0
 76
     1
 77
     6
 78
     2
 67
     7
 79
     3
170
     0
171
     0
290
     0
174
     0
 93
        5
 44
0.0
173
     0
291
     0
 45
0.0
1001
ACAD
1000
AcDbSavedByObjectVersion
1070
     0
  0
VISUALSTYLE
  5
3A
102
{ACAD_XDICTIONARY
360
30D
102
}
102
{ACAD_REACTORS
330
29
102
}
330
29
100
AcDbVisualStyle
  2
Shades of Gray
 70
    23
 71
     2
 72
     2
 73
     3
 90
        0
 40
-0.6
 41
-30.0
 62
     5
 63
     7
 74
     2
 91
        2
 64
     7
 65
     7
 75
     1
175
     1
 42
40.0
 92
        8
 66
     7
 43
1.0
 76
     1
 77
     6
 78
     2
 67
     7
 79
     3
170
     0
171
     0
290
     0
174
     0
 93
        1
 44
0.0
173
     0
291
     0
 45
0.0
1001
ACAD
1000
AcDbSavedByObjectVersion
1070
     0
  0
VISUALSTYLE
  5
3B
102
{ACAD_XDICTIONARY
360
30F
102
}
102
{ACAD_REACTORS
330
29
102
}
330
29
100
AcDbVisualStyle
  2
Sketchy
 70
    24
 71
     1
 72
     2
 73
     2
 90
        0
 40
-0.6
 41
-30.0
 62
     5
 63
     7
 74
     2
 91
        2
 64
     7
 65
     7
 75
     1
175
     1
 42
40.0
 92
       11
 66
     7
 43
1.0
 76
     1
 77
     6
 78
     2
 67
     7
 79
     6
170
     0
171
     0
290
     0
174
     0
 93
        1
 44
0.0
173
     0
291
     0
 45
0.0
1001
ACAD
1000
AcDbSavedByObjectVersion
1070
     0
  0
VISUALSTYLE
  5
36
102
{ACAD_XDICTIONARY
360
305
102
}
102
{ACAD_REACTORS
330
29
102
}
330
29
100
AcDbVisualStyle
  2
Thicken
 70
    13
 71
     2
 72
     2
 73
     0
 90
        0
 40
-0.6
 41
-30.0
 62
     5
 63
     7
 74
     1
 91
        4
 64
     7
 65
   257
 75
     1
175
     1
 42
1.0
 92
       12
 66
     7
 43
1.0
 76
     1
 77
     6
 78
     2
 67
     7
 79
     5
170
     0
171
     0
290
     0
174
     0
 93
        1
 44
0.0
173
     0
291
     1
 45
0.0
1001
ACAD
1000
AcDbSavedByObjectVersion
1070
     0
  0
VISUALSTYLE
  5
30
102
{ACAD_XDICTIONARY
360
2F9
102
}
102
{ACAD_REACTORS
330
29
102
}
330
29
100
AcDbVisualStyle
  2
Wireframe
 70
     5
 71
     0
 72
     2
 73
     0
 90
        0
 40
-0.6
 41
-30.0
 62
     5
 63
     7
 74
     1
 91
        4
 64
     7
 65
   257
 75
     1
175
     1
 42
1.0
 92
        0
 66
   257
 43
1.0
 76
     1
 77
     6
 78
     2
 67
     7
 79
     3
170
     0
171
     0
290
     0
174
     0
 93
        1
 44
0.0
173
     0
291
     0
 45
0.0
1001
ACAD
1000
AcDbSavedByObjectVersion
1070
     0
  0
VISUALSTYLE
  5
3C
102
{ACAD_XDICTIONARY
360
311
102
}
102
{ACAD_REACTORS
330
29
102
}
330
29
100
AcDbVisualStyle
  2
X-Ray
 70
    25
 71
     2
 72
     2
 73
     1
 90
        1
 40
0.5
 41
-30.0
 62
     5
 63
     7
 74
     1
 91
        0
 64
     7
 65
   257
 75
     1
175
     1
 42
1.0
 92
        8
 66
     7
 43
1.0
 76
     1
 77
     6
 78
     2
 67
     7
 79
     3
170
     0
171
     0
290
     0
174
     0
 93
       13
 44
0.0
173
     0
291
     0
 45
0.0
1001
ACAD
1000
AcDbSavedByObjectVersion
1070
     0
  0
DICTIONARYVAR
  5
249
102
{ACAD_REACTORS
330
244
102
}
330
244
100
DictionaryVariables
280
     0
  1
0
  0
DICTIONARYVAR
  5
24A
102
{ACAD_REACTORS
330
244
102
}
330
244
100
DictionaryVariables
280
     0
  1
1:1
  0
DICTIONARYVAR
  5
246
102
{ACAD_REACTORS
330
244
102
}
330
244
100
DictionaryVariables
280
     0
  1
STANDARD
  0
DICTIONARYVAR
  5
245
102
{ACAD_REACTORS
330
244
102
}
330
244
100
DictionaryVariables
280
     0
  1
STANDARD
  0
DICTIONARYVAR
  5
247
102
{ACAD_REACTORS
330
244
102
}
330
244
100
DictionaryVariables
280
     0
  1
Imperial24
  0
DICTIONARYVAR
  5
248
102
{ACAD_REACTORS
330
244
102
}
330
244
100
DictionaryVariables
280
     0
  1
Imperial24
  0
DICTIONARYVAR
  5
28A
102
{ACAD_REACTORS
330
244
102
}
330
244
100
DictionaryVariables
280
     0
  1
2
  0
DICTIONARYVAR
  5
289
102
{ACAD_REACTORS
330
244
102
}
330
244
100
DictionaryVariables
280
     0
  1
1
  0
DICTIONARYVAR
  5
288
102
{ACAD_REACTORS
330
244
102
}
330
244
100
DictionaryVariables
280
     0
  1
0
  0
DICTIONARYVAR
  5
24C
102
{ACAD_REACTORS
330
244
102
}
330
244
100
DictionaryVariables
280
     0
  1
1
  0
DICTIONARYVAR
  5
24D
102
{ACAD_REACTORS
330
244
102
}
330
244
100
DictionaryVariables
280
     0
  1
15
  0
DICTIONARYVAR
  5
24B
102
{ACAD_REACTORS
330
244
102
}
330
244
100
DictionaryVariables
280
     0
  1
0
  0
DICTIONARYVAR
  5
286
102
{ACAD_REACTORS
330
244
102
}
330
244
100
DictionaryVariables
280
     0
  1
1
  0
DICTIONARYVAR
  5
287
102
{ACAD_REACTORS
330
244
102
}
330
244
100
DictionaryVariables
280
     0
  1
127
  0
DICTIONARYVAR
  5
28B
102
{ACAD_REACTORS
330
244
102
}
330
244
100
DictionaryVariables
280
     0
  1
2
  0
DICTIONARY
  5
2E9
102
{ACAD_REACTORS
330
2E7
102
}
330
2E7
100
AcDbDictionary
281
     1
  0
DICTIONARY
  5
2E8
102
{ACAD_REACTORS
330
2E7
102
}
330
2E7
100
AcDbDictionary
281
     1
  3
140698781712672
350
2E2
  3
140698781712688
350
2E3
  3
140698781712704
350
2E4
  3
140698781712720
350
2E5
  3
140698781712736
350
2E6
  0
DICTIONARY
  5
23F
330
6B
100
AcDbDictionary
280
     1
281
     1
  3
ACAD_XREC_ROUNDTRIP
360
322
  0
DICTIONARY
  5
32C
330
250
100
AcDbDictionary
280
     1
281
     1
  3
ACAD_XREC_ROUNDTRIP
360
32D
  0
DICTIONARY
  5
323
330
6F
100
AcDbDictionary
280
     1
281
     1
  3
ACAD_XREC_ROUNDTRIP
360
324
  0
DICTIONARY
  5
327
330
77
100
AcDbDictionary
280
     1
281
     1
  3
ACAD_XREC_ROUNDTRIP
360
328
  0
DICTIONARY
  5
325
330
73
100
AcDbDictionary
280
     1
281
     1
  3
ACAD_XREC_ROUNDTRIP
360
326
  0
DICTIONARY
  5
1A
330
19
100
AcDbDictionary
280
     1
281
     1
  3
ACAD_XREC_ROUNDTRIP
360
2EB
  3
BUMPTILE
360
1C
  3
DIFFUSETILE
360
1B
  3
OPACITYTILE
360
1F
  3
REFLECTIONTILE
360
1E
  3
REFRACTIONTILE
360
20
  3
SPECULARTILE
360
1D
  0
DICTIONARY
  5
12
330
11
100
AcDbDictionary
280
     1
281
     1
  3
ACAD_XREC_ROUNDTRIP
360
2EA
  3
BUMPTILE
360
14
  3
DIFFUSETILE
360
13
  3
OPACITYTILE
360
17
  3
REFLECTIONTILE
360
16
  3
REFRACTIONTILE
360
18
  3
SPECULARTILE
360
15
  0
DICTIONARY
  5
22
330
21
100
AcDbDictionary
280
     1
281
     1
  3
ACAD_XREC_ROUNDTRIP
360
2EC
  3
BUMPTILE
360
24
  3
DIFFUSETILE
360
23
  3
OPACITYTILE
360
27
  3
REFLECTIONTILE
360
26
  3
REFRACTIONTILE
360
28
  3
SPECULARTILE
360
25
  0
DICTIONARY
  5
31F
330
67
100
AcDbDictionary
280
     1
281
     1
  3
ACAD_XREC_ROUNDTRIP
360
320
  0
DICTIONARY
  5
23D
330
69
100
AcDbDictionary
280
     1
281
     1
  3
ACAD_XREC_ROUNDTRIP
360
321
  0
DICTIONARY
  5
32A
330
24F
100
AcDbDictionary
280
     1
281
     1
  3
ACAD_XREC_ROUNDTRIP
360
32B
  0
DICTIONARY
  5
2DD
330
65
100
AcDbDictionary
280
     1
281
     1
  3
ACAD_ROUNDTRIP_2008_TABLESTYLE_CELLSTYLEMAP
360
2DE
  3
ACAD_XREC_ROUNDTRIP
360
31D
  0
DICTIONARY
  5
2F7
330
2F
100
AcDbDictionary
280
     1
281
     1
  3
ACAD_XREC_ROUNDTRIP
360
2F8
  0
DICTIONARY
  5
2F5
330
2E
100
AcDbDictionary
280
     1
281
     1
  3
ACAD_XREC_ROUNDTRIP
360
2F6
  0
DICTIONARY
  5
303
330
35
100
AcDbDictionary
280
     1
281
     1
  3
ACAD_XREC_ROUNDTRIP
360
304
  0
DICTIONARY
  5
30B
330
39
100
AcDbDictionary
280
     1
281
     1
  3
ACAD_XREC_ROUNDTRIP
360
30C
  0
DICTIONARY
  5
2FD
330
32
100
AcDbDictionary
280
     1
281
     1
  3
ACAD_XREC_ROUNDTRIP
360
2FE
  0
DICTIONARY
  5
301
330
34
100
AcDbDictionary
280
     1
281
     1
  3
ACAD_XREC_ROUNDTRIP
360
302
  0
DICTIONARY
  5
31B
330
41
100
AcDbDictionary
280
     1
281
     1
  3
ACAD_XREC_ROUNDTRIP
360
31C
  0
DICTIONARY
  5
309
330
38
100
AcDbDictionary
280
     1
281
     1
  3
ACAD_XREC_ROUNDTRIP
360
30A
  0
DICTIONARY
  5
2ED
330
2A
100
AcDbDictionary
280
     1
281
     1
  3
ACAD_XREC_ROUNDTRIP
360
2EE
  0
DICTIONARY
  5
2EF
330
2B
100
AcDbDictionary
280
     1
281
     1
  3
ACAD_XREC_ROUNDTRIP
360
2F0
  0
DICTIONARY
  5
2F1
330
2C
100
AcDbDictionary
280
     1
281
     1
  3
ACAD_XREC_ROUNDTRIP
360
2F2
  0
DICTIONARY
  5
2F3
330
2D
100
AcDbDictionary
280
     1
281
     1
  3
ACAD_XREC_ROUNDTRIP
360
2F4
  0
DICTIONARY
  5
2FB
330
31
100
AcDbDictionary
280
     1
281
     1
  3
ACAD_XREC_ROUNDTRIP
360
2FC
  0
DICTIONARY
  5
317
330
3F
100
AcDbDictionary
280
     1
281
     1
  3
ACAD_XREC_ROUNDTRIP
360
318
  0
DICTIONARY
  5
307
330
37
100
AcDbDictionary
280
     1
281
     1
  3
ACAD_XREC_ROUNDTRIP
360
308
  0
DICTIONARY
  5
319
330
40
100
AcDbDictionary
280
     1
281
     1
  3
ACAD_XREC_ROUNDTRIP
360
31A
  0
DICTIONARY
  5
2FF
330
33
100
AcDbDictionary
280
     1
281
     1
  3
ACAD_XREC_ROUNDTRIP
360
300
  0
DICTIONARY
  5
315
330
3E
100
AcDbDictionary
280
     1
281
     1
  3
ACAD_XREC_ROUNDTRIP
360
316
  0
DICTIONARY
  5
313
330
3D
100
AcDbDictionary
280
     1
281
     1
  3
ACAD_XREC_ROUNDTRIP
360
314
  0
DICTIONARY
  5
30D
330
3A
100
AcDbDictionary
280
     1
281
     1
  3
ACAD_XREC_ROUNDTRIP
360
30E
  0
DICTIONARY
  5
30F
330
3B
100
AcDbDictionary
280
     1
281
     1
  3
ACAD_XREC_ROUNDTRIP
360
310
  0
DICTIONARY
  5
305
330
36
100
AcDbDictionary
280
     1
281
     1
  3
ACAD_XREC_ROUNDTRIP
360
306
  0
DICTIONARY
  5
2F9
330
30
100
AcDbDictionary
280
     1
281
     1
  3
ACAD_XREC_ROUNDTRIP
360
2FA
  0
DICTIONARY
  5
311
330
3C
100
AcDbDictionary
280
     1
281
     1
  3
ACAD_XREC_ROUNDTRIP
360
312
  0
XRECORD
  5
2E2
102
{ACAD_REACTORS
330
2E8
102
}
330
2E8
100
AcDbXrecord
280
     1
  1
AcDb_Thumbnail_Schema
102
{ATTRRECORD
341
2E3
  2
AcDbDs::TreatedAsObjectData
280
     1
291
     1
102
ATTRRECORD}
102
{ATTRRECORD
341
2E4
  2
AcDbDs::Legacy
280
     1
291
     1
102
ATTRRECORD}
  2
AcDbDs::ID
280
    10
 91
        8
102
{ATTRRECORD
341
2E5
  2
AcDs:Indexable
280
     1
291
     1
102
ATTRRECORD}
102
{ATTRRECORD
341
2E6
  2
AcDbDs::HandleAttribute
280
     7
282
     1
102
ATTRRECORD}
  2
Thumbnail_Data
280
    15
 91
        0
  0
XRECORD
  5
2E3
102
{ACAD_REACTORS
330
2E8
102
}
330
2E8
100
AcDbXrecord
280
     1
  1
AcDbDs::TreatedAsObjectDataSchema
  2
AcDbDs::TreatedAsObjectData
280
     1
 91
        0
  0
XRECORD
  5
2E4
102
{ACAD_REACTORS
330
2E8
102
}
330
2E8
100
AcDbXrecord
280
     1
  1
AcDbDs::LegacySchema
  2
AcDbDs::Legacy
280
     1
 91
        0
  0
XRECORD
  5
2E5
102
{ACAD_REACTORS
330
2E8
102
}
330
2E8
100
AcDbXrecord
280
     1
  1
AcDbDs::IndexedPropertySchema
  2
AcDs:Indexable
280
     1
 91
        0
  0
XRECORD
  5
2E6
102
{ACAD_REACTORS
330
2E8
102
}
330
2E8
100
AcDbXrecord
280
     1
  1
AcDbDs::HandleAttributeSchema
  2
AcDbDs::HandleAttribute
280
     7
 91
        1
284
     1
  0
XRECORD
  5
322
102
{ACAD_REACTORS
330
23F
102
}
330
23F
100
AcDbXrecord
280
     1
102
DISPLAYNAME
  1
Imperial24
102
FLAGS
 90
        0
  0
XRECORD
  5
32D
102
{ACAD_REACTORS
330
32C
102
}
330
32C
100
AcDbXrecord
280
     1
102
DISPLAYNAME
  1
Metric50
102
FLAGS
 90
        0
  0
XRECORD
  5
324
102
{ACAD_REACTORS
330
323
102
}
330
323
100
AcDbXrecord
280
     1
102
SHADEPLOT
 70
     0
102
SHADEPLOTRESLEVEL
 70
     2
102
SHADEPLOTCUSTOMDPI
 70
   300
  0
XRECORD
  5
328
102
{ACAD_REACTORS
330
327
102
}
330
327
100
AcDbXrecord
280
     1
102
SHADEPLOT
 70
     0
102
SHADEPLOTRESLEVEL
 70
     2
102
SHADEPLOTCUSTOMDPI
 70
   300
  0
XRECORD
  5
326
102
{ACAD_REACTORS
330
325
102
}
330
325
100
AcDbXrecord
280
     1
102
SHADEPLOT
 70
     0
102
SHADEPLOTRESLEVEL
 70
     2
102
SHADEPLOTCUSTOMDPI
 70
   300
  0
XRECORD
  5
2EB
102
{ACAD_REACTORS
330
1A
102
}
330
1A
100
AcDbXrecord
280
     1
102
MATERIAL
148
0.0
149
0.0
149
0.0
 93
        0
 94
      127
282
     0
 72
     0
 77
     0
171
     0
175
     0
179
     0
273
     0
  0
XRECORD
  5
1C
102
{ACAD_REACTORS
330
1A
102
}
330
1A
100
AcDbXrecord
280
     1
270
     1
271
     1
  0
XRECORD
  5
1B
102
{ACAD_REACTORS
330
1A
102
}
330
1A
100
AcDbXrecord
280
     1
270
     1
271
     1
  0
XRECORD
  5
1F
102
{ACAD_REACTORS
330
1A
102
}
330
1A
100
AcDbXrecord
280
     1
270
     1
271
     1
  0
XRECORD
  5
1E
102
{ACAD_REACTORS
330
1A
102
}
330
1A
100
AcDbXrecord
280
     1
270
     1
271
     1
  0
XRECORD
  5
20
102
{ACAD_REACTORS
330
1A
102
}
330
1A
100
AcDbXrecord
280
     1
270
     1
271
     1
  0
XRECORD
  5
1D
102
{ACAD_REACTORS
330
1A
102
}
330
1A
100
AcDbXrecord
280
     1
270
     1
271
     1
  0
XRECORD
  5
2EA
102
{ACAD_REACTORS
330
12
102
}
330
12
100
AcDbXrecord
280
     1
102
MATERIAL
148
0.0
149
0.0
149
0.0
 93
        0
 94
      127
282
     0
 72
     0
 77
     0
171
     0
175
     0
179
     0
273
     0
  0
XRECORD
  5
14
102
{ACAD_REACTORS
330
12
102
}
330
12
100
AcDbXrecord
280
     1
270
     1
271
     1
  0
XRECORD
  5
13
102
{ACAD_REACTORS
330
12
102
}
330
12
100
AcDbXrecord
280
     1
270
     1
271
     1
  0
XRECORD
  5
17
102
{ACAD_REACTORS
330
12
102
}
330
12
100
AcDbXrecord
280
     1
270
     1
271
     1
  0
XRECORD
  5
16
102
{ACAD_REACTORS
330
12
102
}
330
12
100
AcDbXrecord
280
     1
270
     1
271
     1
  0
XRECORD
  5
18
102
{ACAD_REACTORS
330
12
102
}
330
12
100
AcDbXrecord
280
     1
270
     1
271
     1
  0
XRECORD
  5
15
102
{ACAD_REACTORS
330
12
102
}
330
12
100
AcDbXrecord
280
     1
270
     1
271
     1
  0
XRECORD
  5
2EC
102
{ACAD_REACTORS
330
22
102
}
330
22
100
AcDbXrecord
280
     1
102
MATERIAL
148
0.0
149
0.0
149
0.0
 93
        0
 94
      127
282
     0
 72
     0
 77
     0
171
     0
175
     0
179
     0
273
     0
  0
XRECORD
  5
24
102
{ACAD_REACTORS
330
22
102
}
330
22
100
AcDbXrecord
280
     1
270
     1
271
     1
  0
XRECORD
  5
23
102
{ACAD_REACTORS
330
22
102
}
330
22
100
AcDbXrecord
280
     1
270
     1
271
     1
  0
XRECORD
  5
27
102
{ACAD_REACTORS
330
22
102
}
330
22
100
AcDbXrecord
280
     1
270
     1
271
     1
  0
XRECORD
  5
26
102
{ACAD_REACTORS
330
22
102
}
330
22
100
AcDbXrecord
280
     1
270
     1
271
     1
  0
XRECORD
  5
28
102
{ACAD_REACTORS
330
22
102
}
330
22
100
AcDbXrecord
280
     1
270
     1
271
     1
  0
XRECORD
  5
25
102
{ACAD_REACTORS
330
22
102
}
330
22
100
AcDbXrecord
280
     1
270
     1
271
     1
  0
XRECORD
  5
320
102
{ACAD_REACTORS
330
31F
102
}
330
31F
100
AcDbXrecord
280
     1
102
ACAD_ROUNDTRIP_2012_MLEADER_STYLE
298
     1
  0
XRECORD
  5
321
102
{ACAD_REACTORS
330
23D
102
}
330
23D
100
AcDbXrecord
280
     1
102
DISPLAYNAME
  1
Imperial24
102
FLAGS
 90
        0
  0
XRECORD
  5
32B
102
{ACAD_REACTORS
330
32A
102
}
330
32A
100
AcDbXrecord
280
     1
102
DISPLAYNAME
  1
Metric50
102
FLAGS
 90
        0
  0
CELLSTYLEMAP
  5
2DE
102
{ACAD_REACTORS
330
2DD
102
}
330
2DD
100
AcDbCellStyleMap
 90
        3
300
CELLSTYLE
  1
TABLEFORMAT_BEGIN
 90
        5
170
     1
 91
        0
 92
    32768
 62
   257
 93
        1
300
CONTENTFORMAT
  1
CONTENTFORMAT_BEGIN
 90
        0
 91
        0
 92
      512
 93
        0
300

 40
0.0
140
1.0
 94
        5
 62
     0
340
55
144
0.25
309
CONTENTFORMAT_END
171
     0
 94
        6
 95
        1
302
GRIDFORMAT
  1
GRIDFORMAT_BEGIN
 90
        0
 91
        1
 62
     0
 92
       -2
340
0
 93
        0
 40
0.045
309
GRIDFORMAT_END
 95
        2
302
GRIDFORMAT
  1
GRIDFORMAT_BEGIN
 90
        0
 91
        1
 62
     0
 92
       -2
340
0
 93
        0
 40
0.045
309
GRIDFORMAT_END
 95
        4
302
GRIDFORMAT
  1
GRIDFORMAT_BEGIN
 90
        0
 91
        1
 62
     0
 92
       -2
340
0
 93
        0
 40
0.045
309
GRIDFORMAT_END
 95
        8
302
GRIDFORMAT
  1
GRIDFORMAT_BEGIN
 90
        0
 91
        1
 62
     0
 92
       -2
340
0
 93
        0
 40
0.045
309
GRIDFORMAT_END
 95
       16
302
GRIDFORMAT
  1
GRIDFORMAT_BEGIN
 90
        0
 91
        1
 62
     0
 92
       -2
340
0
 93
        0
 40
0.045
309
GRIDFORMAT_END
 95
       32
302
GRIDFORMAT
  1
GRIDFORMAT_BEGIN
 90
        0
 91
        1
 62
     0
 92
       -2
340
0
 93
        0
 40
0.045
309
GRIDFORMAT_END
309
TABLEFORMAT_END
  1
CELLSTYLE_BEGIN
 90
        1
 91
        1
300
_TITLE
309
CELLSTYLE_END
300
CELLSTYLE
  1
TABLEFORMAT_BEGIN
 90
        5
170
     1
 91
        0
 92
        0
 62
   257
 93
        1
300
CONTENTFORMAT
  1
CONTENTFORMAT_BEGIN
 90
        0
 91
        0
 92
      512
 93
        0
300

 40
0.0
140
1.0
 94
        5
 62
     0
340
55
144
0.18
309
CONTENTFORMAT_END
171
     0
 94
        6
 95
        1
302
GRIDFORMAT
  1
GRIDFORMAT_BEGIN
 90
        0
 91
        1
 62
     0
 92
       -2
340
0
 93
        0
 40
0.045
309
GRIDFORMAT_END
 95
        2
302
GRIDFORMAT
  1
GRIDFORMAT_BEGIN
 90
        0
 91
        1
 62
     0
 92
       -2
340
0
 93
        0
 40
0.045
309
GRIDFORMAT_END
 95
        4
302
GRIDFORMAT
  1
GRIDFORMAT_BEGIN
 90
        0
 91
        1
 62
     0
 92
       -2
340
0
 93
        0
 40
0.045
309
GRIDFORMAT_END
 95
        8
302
GRIDFORMAT
  1
GRIDFORMAT_BEGIN
 90
        0
 91
        1
 62
     0
 92
       -2
340
0
 93
        0
 40
0.045
309
GRIDFORMAT_END
 95
       16
302
GRIDFORMAT
  1
GRIDFORMAT_BEGIN
 90
        0
 91
        1
 62
     0
 92
       -2
340
0
 93
        0
 40
0.045
309
GRIDFORMAT_END
 95
       32
302
GRIDFORMAT
  1
GRIDFORMAT_BEGIN
 90
        0
 91
        1
 62
     0
 92
       -2
340
0
 93
        0
 40
0.045
309
GRIDFORMAT_END
309
TABLEFORMAT_END
  1
CELLSTYLE_BEGIN
 90
        2
 91
        1
300
_HEADER
309
CELLSTYLE_END
300
CELLSTYLE
  1
TABLEFORMAT_BEGIN
 90
        5
170
     1
 91
        0
 92
        0
 62
   257
 93
        1
300
CONTENTFORMAT
  1
CONTENTFORMAT_BEGIN
 90
        0
 91
        0
 92
      512
 93
        0
300

 40
0.0
140
1.0
 94
        2
 62
     0
340
55
144
0.18
309
CONTENTFORMAT_END
171
     0
 94
        6
 95
        1
302
GRIDFORMAT
  1
GRIDFORMAT_BEGIN
 90
        0
 91
        1
 62
     0
 92
       -2
340
0
 93
        0
 40
0.045
309
GRIDFORMAT_END
 95
        2
302
GRIDFORMAT
  1
GRIDFORMAT_BEGIN
 90
        0
 91
        1
 62
     0
 92
       -2
340
0
 93
        0
 40
0.045
309
GRIDFORMAT_END
 95
        4
302
GRIDFORMAT
  1
GRIDFORMAT_BEGIN
 90
        0
 91
        1
 62
     0
 92
       -2
340
0
 93
        0
 40
0.045
309
GRIDFORMAT_END
 95
        8
302
GRIDFORMAT
  1
GRIDFORMAT_BEGIN
 90
        0
 91
        1
 62
     0
 92
       -2
340
0
 93
        0
 40
0.045
309
GRIDFORMAT_END
 95
       16
302
GRIDFORMAT
  1
GRIDFORMAT_BEGIN
 90
        0
 91
        1
 62
     0
 92
       -2
340
0
 93
        0
 40
0.045
309
GRIDFORMAT_END
 95
       32
302
GRIDFORMAT
  1
GRIDFORMAT_BEGIN
 90
        0
 91
        1
 62
     0
 92
       -2
340
0
 93
        0
 40
0.045
309
GRIDFORMAT_END
309
TABLEFORMAT_END
  1
CELLSTYLE_BEGIN
 90
        3
 91
        2
300
_DATA
309
CELLSTYLE_END
  0
XRECORD
  5
31D
102
{ACAD_REACTORS
330
2DD
102
}
330
2DD
100
AcDbXrecord
280
     1
102
ACAD_ROUNDTRIP_PRE2007_TABLESTYLE
 90
      512
 91
        0
  1

 92
      512
 93
        0
  2

 94
      512
 95
        0
  3

  0
XRECORD
  5
2F8
102
{ACAD_REACTORS
330
2F7
102
}
330
2F7
100
AcDbXrecord
280
     1
102
RTVSPost2010Prop28
280
     1
102
RTVSPost2010PropOp28
 70
     1
102
RTVSPost2010Prop29
280
     1
102
RTVSPost2010PropOp29
 70
     1
102
RTVSPost2010Prop30
280
     0
102
RTVSPost2010PropOp30
 70
     1
102
RTVSPost2010Prop31
280
     0
102
RTVSPost2010PropOp31
 70
     1
102
RTVSPost2010Prop32
280
     0
102
RTVSPost2010PropOp32
 70
     1
102
RTVSPost2010Prop33
280
     0
102
RTVSPost2010PropOp33
 70
     1
102
RTVSPost2010Prop34
280
     0
102
RTVSPost2010PropOp34
 70
     1
102
RTVSPost2010Prop35
280
     0
102
RTVSPost2010PropOp35
 70
     1
102
RTVSPost2010Prop36
280
     0
102
RTVSPost2010PropOp36
 70
     1
102
RTVSPost2010Prop37
 90
       50
102
RTVSPost2010PropOp37
 70
     1
102
RTVSPost2010Prop38
140
0.0
102
RTVSPost2010PropOp38
 70
     1
102
RTVSPost2010Prop39
140
1.0
102
RTVSPost2010PropOp39
 70
     1
102
RTVSPost2010Prop40
 90
        0
102
RTVSPost2010PropOp40
 70
     1
102
RTVSPost2010Prop41ColorIndex
 90
       18
102
RTVSPost2010Prop41ColorRGB
 90
        0
102
RTVSPost2010PropOp41
 70
     1
102
RTVSPost2010Prop42
 90
       50
102
RTVSPost2010PropOp42
 70
     1
102
RTVSPost2010Prop43
 90
        3
102
RTVSPost2010PropOp43
 70
     1
102
RTVSPost2010Prop44ColorIndex
 90
        5
102
RTVSPost2010Prop44ColorRGB
 90
      255
102
RTVSPost2010PropOp44
 70
     1
102
RTVSPost2010Prop45
280
     0
102
RTVSPost2010PropOp45
 70
     1
102
RTVSPost2010Prop46
 90
       50
102
RTVSPost2010PropOp46
 70
     1
102
RTVSPost2010Prop47
 90
       50
102
RTVSPost2010PropOp47
 70
     1
102
RTVSPost2010Prop48
 90
       50
102
RTVSPost2010PropOp48
 70
     1
102
RTVSPost2010Prop49
280
     0
102
RTVSPost2010PropOp49
 70
     1
102
RTVSPost2010Prop50
 90
       50
102
RTVSPost2010PropOp50
 70
     1
102
RTVSPost2010Prop51ColorIndex
 90
      256
102
RTVSPost2010Prop51ColorRGB
 90
-16777216
102
RTVSPost2010PropOp51
 70
     0
102
RTVSPost2010Prop52
140
1.0
102
RTVSPost2010PropOp52
 70
     0
102
RTVSPost2010Prop53
 90
        2
102
RTVSPost2010PropOp53
 70
     1
102
RTVSPost2010Prop54
  1
strokes_ogs.tif
102
RTVSPost2010PropOp54
 70
     1
102
RTVSPost2010Prop55
280
     0
102
RTVSPost2010PropOp55
 70
     1
102
RTVSPost2010Prop56
140
1.0
102
RTVSPost2010PropOp56
 70
     1
102
RTVSPost2010Prop57
140
1.0
102
RTVSPost2010PropOp57
 70
     1
102
RTVSPropertyOp0
 70
     1
102
RTVSPropertyOp1
 70
     1
102
RTVSPropertyOp2
 70
     1
102
RTVSPropertyOp3
 70
     1
102
RTVSPropertyOp4
 70
     1
102
RTVSPropertyOp5
 70
     1
102
RTVSPropertyOp6
 70
     1
102
RTVSPropertyOp7
 70
     1
102
RTVSPropertyOp8
 70
     1
102
RTVSPropertyOp9
 70
     1
102
RTVSPropertyOp10
 70
     1
102
RTVSPropertyOp11
 70
     1
102
RTVSPropertyOp12
 70
     1
102
RTVSPropertyOp13
 70
     1
102
RTVSPropertyOp14
 70
     1
102
RTVSPropertyOp15
 70
     1
102
RTVSPropertyOp16
 70
     1
102
RTVSPropertyOp17
 70
     1
102
RTVSPropertyOp18
 70
     1
102
RTVSPropertyOp19
 70
     1
102
RTVSPropertyOp20
 70
     1
102
RTVSPropertyOp21
 70
     1
102
RTVSPropertyOp22
 70
     1
102
RTVSPropertyOp23
 70
     1
102
RTVSPropertyOp24
 70
     1
102
RTVSPropertyOp25
 70
     1
102
RTVSPropertyOp26
 70
     1
102
RTVSPropertyOp27
 70
     1
102
RTVSPropertyOp28
 70
     1
102
RTVSPropertyOp29
 70
     1
102
RTVSPropertyOp30
 70
     1
102
RTVSPropertyOp31
 70
     1
102
RTVSPropertyOp32
 70
     1
102
RTVSPropertyOp33
 70
     1
102
RTVSPropertyOp34
 70
     1
102
RTVSPropertyOp35
 70
     1
102
RTVSPropertyOp36
 70
     1
102
RTVSPropertyOp37
 70
     1
102
RTVSPropertyOp38
 70
     1
102
RTVSPropertyOp39
 70
     1
102
RTVSPropertyOp40
 70
     1
102
RTVSPropertyOp41
 70
     1
102
RTVSPropertyOp42
 70
     1
102
RTVSPropertyOp43
 70
     1
102
RTVSPropertyOp44
 70
     1
102
RTVSPropertyOp45
 70
     1
102
RTVSPropertyOp46
 70
     1
102
RTVSPropertyOp47
 70
     1
102
RTVSPropertyOp48
 70
     1
102
RTVSPropertyOp49
 70
     1
102
RTVSPropertyOp50
 70
     1
102
RTVSPropertyOp51
 70
     0
102
RTVSPropertyOp52
 70
     0
102
RTVSPropertyOp53
 70
     1
102
RTVSPropertyOp54
 70
     1
102
RTVSPropertyOp55
 70
     1
102
RTVSPropertyOp56
 70
     1
102
RTVSPropertyOp57
 70
     1
102
RTVSPropertyOp58
 70
     1
102
RTVSPropertyOp59
 70
     1
102
RTVSPropertyOp60
 70
     1
102
RTVSPropertyOp61
 70
     1
102
RTVSPropertyOp62
 70
     1
  0
XRECORD
  5
2F6
102
{ACAD_REACTORS
330
2F5
102
}
330
2F5
100
AcDbXrecord
280
     1
102
RTVSPost2010Prop28
280
     0
102
RTVSPost2010PropOp28
 70
     1
102
RTVSPost2010Prop29
280
     1
102
RTVSPost2010PropOp29
 70
     1
102
RTVSPost2010Prop30
280
     1
102
RTVSPost2010PropOp30
 70
     1
102
RTVSPost2010Prop31
280
     0
102
RTVSPost2010PropOp31
 70
     1
102
RTVSPost2010Prop32
280
     0
102
RTVSPost2010PropOp32
 70
     1
102
RTVSPost2010Prop33
280
     0
102
RTVSPost2010PropOp33
 70
     1
102
RTVSPost2010Prop34
280
     0
102
RTVSPost2010PropOp34
 70
     1
102
RTVSPost2010Prop35
280
     0
102
RTVSPost2010PropOp35
 70
     1
102
RTVSPost2010Prop36
280
     0
102
RTVSPost2010PropOp36
 70
     1
102
RTVSPost2010Prop37
 90
       50
102
RTVSPost2010PropOp37
 70
     1
102
RTVSPost2010Prop38
140
0.0
102
RTVSPost2010PropOp38
 70
     1
102
RTVSPost2010Prop39
140
1.0
102
RTVSPost2010PropOp39
 70
     1
102
RTVSPost2010Prop40
 90
        0
102
RTVSPost2010PropOp40
 70
     1
102
RTVSPost2010Prop41ColorIndex
 90
       18
102
RTVSPost2010Prop41ColorRGB
 90
        0
102
RTVSPost2010PropOp41
 70
     1
102
RTVSPost2010Prop42
 90
       50
102
RTVSPost2010PropOp42
 70
     1
102
RTVSPost2010Prop43
 90
        3
102
RTVSPost2010PropOp43
 70
     1
102
RTVSPost2010Prop44ColorIndex
 90
        5
102
RTVSPost2010Prop44ColorRGB
 90
      255
102
RTVSPost2010PropOp44
 70
     1
102
RTVSPost2010Prop45
280
     0
102
RTVSPost2010PropOp45
 70
     1
102
RTVSPost2010Prop46
 90
       50
102
RTVSPost2010PropOp46
 70
     1
102
RTVSPost2010Prop47
 90
       50
102
RTVSPost2010PropOp47
 70
     1
102
RTVSPost2010Prop48
 90
       50
102
RTVSPost2010PropOp48
 70
     1
102
RTVSPost2010Prop49
280
     0
102
RTVSPost2010PropOp49
 70
     1
102
RTVSPost2010Prop50
 90
       50
102
RTVSPost2010PropOp50
 70
     1
102
RTVSPost2010Prop51ColorIndex
 90
      256
102
RTVSPost2010Prop51ColorRGB
 90
-16777216
102
RTVSPost2010PropOp51
 70
     0
102
RTVSPost2010Prop52
140
1.0
102
RTVSPost2010PropOp52
 70
     0
102
RTVSPost2010Prop53
 90
        2
102
RTVSPost2010PropOp53
 70
     1
102
RTVSPost2010Prop54
  1
strokes_ogs.tif
102
RTVSPost2010PropOp54
 70
     1
102
RTVSPost2010Prop55
280
     0
102
RTVSPost2010PropOp55
 70
     1
102
RTVSPost2010Prop56
140
1.0
102
RTVSPost2010PropOp56
 70
     1
102
RTVSPost2010Prop57
140
1.0
102
RTVSPost2010PropOp57
 70
     1
102
RTVSPropertyOp0
 70
     1
102
RTVSPropertyOp1
 70
     1
102
RTVSPropertyOp2
 70
     1
102
RTVSPropertyOp3
 70
     1
102
RTVSPropertyOp4
 70
     1
102
RTVSPropertyOp5
 70
     1
102
RTVSPropertyOp6
 70
     1
102
RTVSPropertyOp7
 70
     1
102
RTVSPropertyOp8
 70
     1
102
RTVSPropertyOp9
 70
     1
102
RTVSPropertyOp10
 70
     1
102
RTVSPropertyOp11
 70
     1
102
RTVSPropertyOp12
 70
     1
102
RTVSPropertyOp13
 70
     1
102
RTVSPropertyOp14
 70
     1
102
RTVSPropertyOp15
 70
     1
102
RTVSPropertyOp16
 70
     1
102
RTVSPropertyOp17
 70
     1
102
RTVSPropertyOp18
 70
     1
102
RTVSPropertyOp19
 70
     1
102
RTVSPropertyOp20
 70
     1
102
RTVSPropertyOp21
 70
     1
102
RTVSPropertyOp22
 70
     1
102
RTVSPropertyOp23
 70
     1
102
RTVSPropertyOp24
 70
     1
102
RTVSPropertyOp25
 70
     1
102
RTVSPropertyOp26
 70
     1
102
RTVSPropertyOp27
 70
     1
102
RTVSPropertyOp28
 70
     1
102
RTVSPropertyOp29
 70
     1
102
RTVSPropertyOp30
 70
     1
102
RTVSPropertyOp31
 70
     1
102
RTVSPropertyOp32
 70
     1
102
RTVSPropertyOp33
 70
     1
102
RTVSPropertyOp34
 70
     1
102
RTVSPropertyOp35
 70
     1
102
RTVSPropertyOp36
 70
     1
102
RTVSPropertyOp37
 70
     1
102
RTVSPropertyOp38
 70
     1
102
RTVSPropertyOp39
 70
     1
102
RTVSPropertyOp40
 70
     1
102
RTVSPropertyOp41
 70
     1
102
RTVSPropertyOp42
 70
     1
102
RTVSPropertyOp43
 70
     1
102
RTVSPropertyOp44
 70
     1
102
RTVSPropertyOp45
 70
     1
102
RTVSPropertyOp46
 70
     1
102
RTVSPropertyOp47
 70
     1
102
RTVSPropertyOp48
 70
     1
102
RTVSPropertyOp49
 70
     1
102
RTVSPropertyOp50
 70
     1
102
RTVSPropertyOp51
 70
     0
102
RTVSPropertyOp52
 70
     0
102
RTVSPropertyOp53
 70
     1
102
RTVSPropertyOp54
 70
     1
102
RTVSPropertyOp55
 70
     1
102
RTVSPropertyOp56
 70
     1
102
RTVSPropertyOp57
 70
     1
102
RTVSPropertyOp58
 70
     1
102
RTVSPropertyOp59
 70
     1
102
RTVSPropertyOp60
 70
     1
102
RTVSPropertyOp61
 70
     1
102
RTVSPropertyOp62
 70
     1
  0
XRECORD
  5
304
102
{ACAD_REACTORS
330
303
102
}
330
303
100
AcDbXrecord
280
     1
102
RTVSPost2010Prop28
280
     0
102
RTVSPost2010PropOp28
 70
     1
102
RTVSPost2010Prop29
280
     1
102
RTVSPost2010PropOp29
 70
     1
102
RTVSPost2010Prop30
280
     1
102
RTVSPost2010PropOp30
 70
     1
102
RTVSPost2010Prop31
280
     0
102
RTVSPost2010PropOp31
 70
     1
102
RTVSPost2010Prop32
280
     0
102
RTVSPost2010PropOp32
 70
     1
102
RTVSPost2010Prop33
280
     0
102
RTVSPost2010PropOp33
 70
     1
102
RTVSPost2010Prop34
280
     0
102
RTVSPost2010PropOp34
 70
     1
102
RTVSPost2010Prop35
280
     0
102
RTVSPost2010PropOp35
 70
     1
102
RTVSPost2010Prop36
280
     0
102
RTVSPost2010PropOp36
 70
     1
102
RTVSPost2010Prop37
 90
       50
102
RTVSPost2010PropOp37
 70
     1
102
RTVSPost2010Prop38
140
0.0
102
RTVSPost2010PropOp38
 70
     1
102
RTVSPost2010Prop39
140
1.0
102
RTVSPost2010PropOp39
 70
     1
102
RTVSPost2010Prop40
 90
        0
102
RTVSPost2010PropOp40
 70
     1
102
RTVSPost2010Prop41ColorIndex
 90
       18
102
RTVSPost2010Prop41ColorRGB
 90
        0
102
RTVSPost2010PropOp41
 70
     1
102
RTVSPost2010Prop42
 90
       50
102
RTVSPost2010PropOp42
 70
     1
102
RTVSPost2010Prop43
 90
        3
102
RTVSPost2010PropOp43
 70
     1
102
RTVSPost2010Prop44ColorIndex
 90
        5
102
RTVSPost2010Prop44ColorRGB
 90
      255
102
RTVSPost2010PropOp44
 70
     1
102
RTVSPost2010Prop45
280
     0
102
RTVSPost2010PropOp45
 70
     1
102
RTVSPost2010Prop46
 90
       50
102
RTVSPost2010PropOp46
 70
     1
102
RTVSPost2010Prop47
 90
       50
102
RTVSPost2010PropOp47
 70
     1
102
RTVSPost2010Prop48
 90
       50
102
RTVSPost2010PropOp48
 70
     1
102
RTVSPost2010Prop49
280
     0
102
RTVSPost2010PropOp49
 70
     1
102
RTVSPost2010Prop50
 90
       50
102
RTVSPost2010PropOp50
 70
     1
102
RTVSPost2010Prop51ColorIndex
 90
      256
102
RTVSPost2010Prop51ColorRGB
 90
-16777216
102
RTVSPost2010PropOp51
 70
     0
102
RTVSPost2010Prop52
140
1.0
102
RTVSPost2010PropOp52
 70
     0
102
RTVSPost2010Prop53
 90
        2
102
RTVSPost2010PropOp53
 70
     1
102
RTVSPost2010Prop54
  1
strokes_ogs.tif
102
RTVSPost2010PropOp54
 70
     1
102
RTVSPost2010Prop55
280
     0
102
RTVSPost2010PropOp55
 70
     1
102
RTVSPost2010Prop56
140
1.0
102
RTVSPost2010PropOp56
 70
     1
102
RTVSPost2010Prop57
140
1.0
102
RTVSPost2010PropOp57
 70
     1
102
RTVSPropertyOp0
 70
     1
102
RTVSPropertyOp1
 70
     1
102
RTVSPropertyOp2
 70
     1
102
RTVSPropertyOp3
 70
     1
102
RTVSPropertyOp4
 70
     1
102
RTVSPropertyOp5
 70
     1
102
RTVSPropertyOp6
 70
     1
102
RTVSPropertyOp7
 70
     1
102
RTVSPropertyOp8
 70
     1
102
RTVSPropertyOp9
 70
     1
102
RTVSPropertyOp10
 70
     1
102
RTVSPropertyOp11
 70
     1
102
RTVSPropertyOp12
 70
     1
102
RTVSPropertyOp13
 70
     1
102
RTVSPropertyOp14
 70
     1
102
RTVSPropertyOp15
 70
     1
102
RTVSPropertyOp16
 70
     1
102
RTVSPropertyOp17
 70
     1
102
RTVSPropertyOp18
 70
     1
102
RTVSPropertyOp19
 70
     1
102
RTVSPropertyOp20
 70
     1
102
RTVSPropertyOp21
 70
     1
102
RTVSPropertyOp22
 70
     1
102
RTVSPropertyOp23
 70
     1
102
RTVSPropertyOp24
 70
     1
102
RTVSPropertyOp25
 70
     1
102
RTVSPropertyOp26
 70
     1
102
RTVSPropertyOp27
 70
     1
102
RTVSPropertyOp28
 70
     1
102
RTVSPropertyOp29
 70
     1
102
RTVSPropertyOp30
 70
     1
102
RTVSPropertyOp31
 70
     1
102
RTVSPropertyOp32
 70
     1
102
RTVSPropertyOp33
 70
     1
102
RTVSPropertyOp34
 70
     1
102
RTVSPropertyOp35
 70
     1
102
RTVSPropertyOp36
 70
     1
102
RTVSPropertyOp37
 70
     1
102
RTVSPropertyOp38
 70
     1
102
RTVSPropertyOp39
 70
     1
102
RTVSPropertyOp40
 70
     1
102
RTVSPropertyOp41
 70
     1
102
RTVSPropertyOp42
 70
     1
102
RTVSPropertyOp43
 70
     1
102
RTVSPropertyOp44
 70
     1
102
RTVSPropertyOp45
 70
     1
102
RTVSPropertyOp46
 70
     1
102
RTVSPropertyOp47
 70
     1
102
RTVSPropertyOp48
 70
     1
102
RTVSPropertyOp49
 70
     1
102
RTVSPropertyOp50
 70
     1
102
RTVSPropertyOp51
 70
     0
102
RTVSPropertyOp52
 70
     0
102
RTVSPropertyOp53
 70
     1
102
RTVSPropertyOp54
 70
     1
102
RTVSPropertyOp55
 70
     1
102
RTVSPropertyOp56
 70
     1
102
RTVSPropertyOp57
 70
     1
102
RTVSPropertyOp58
 70
     1
102
RTVSPropertyOp59
 70
     1
102
RTVSPropertyOp60
 70
     1
102
RTVSPropertyOp61
 70
     1
102
RTVSPropertyOp62
 70
     1
  0
XRECORD
  5
30C
102
{ACAD_REACTORS
330
30B
102
}
330
30B
100
AcDbXrecord
280
     1
102
RTVSPost2010Prop28
280
     0
102
RTVSPost2010PropOp28
 70
     1
102
RTVSPost2010Prop29
280
     1
102
RTVSPost2010PropOp29
 70
     1
102
RTVSPost2010Prop30
280
     1
102
RTVSPost2010PropOp30
 70
     1
102
RTVSPost2010Prop31
280
     0
102
RTVSPost2010PropOp31
 70
     1
102
RTVSPost2010Prop32
280
     0
102
RTVSPost2010PropOp32
 70
     1
102
RTVSPost2010Prop33
280
     0
102
RTVSPost2010PropOp33
 70
     1
102
RTVSPost2010Prop34
280
     0
102
RTVSPost2010PropOp34
 70
     1
102
RTVSPost2010Prop35
280
     0
102
RTVSPost2010PropOp35
 70
     1
102
RTVSPost2010Prop36
280
     0
102
RTVSPost2010PropOp36
 70
     1
102
RTVSPost2010Prop37
 90
       50
102
RTVSPost2010PropOp37
 70
     1
102
RTVSPost2010Prop38
140
0.0
102
RTVSPost2010PropOp38
 70
     1
102
RTVSPost2010Prop39
140
1.0
102
RTVSPost2010PropOp39
 70
     1
102
RTVSPost2010Prop40
 90
        0
102
RTVSPost2010PropOp40
 70
     1
102
RTVSPost2010Prop41ColorIndex
 90
       18
102
RTVSPost2010Prop41ColorRGB
 90
        0
102
RTVSPost2010PropOp41
 70
     1
102
RTVSPost2010Prop42
 90
       50
102
RTVSPost2010PropOp42
 70
     1
102
RTVSPost2010Prop43
 90
        3
102
RTVSPost2010PropOp43
 70
     1
102
RTVSPost2010Prop44ColorIndex
 90
        5
102
RTVSPost2010Prop44ColorRGB
 90
      255
102
RTVSPost2010PropOp44
 70
     1
102
RTVSPost2010Prop45
280
     0
102
RTVSPost2010PropOp45
 70
     1
102
RTVSPost2010Prop46
 90
       50
102
RTVSPost2010PropOp46
 70
     1
102
RTVSPost2010Prop47
 90
       50
102
RTVSPost2010PropOp47
 70
     1
102
RTVSPost2010Prop48
 90
       50
102
RTVSPost2010PropOp48
 70
     1
102
RTVSPost2010Prop49
280
     0
102
RTVSPost2010PropOp49
 70
     1
102
RTVSPost2010Prop50
 90
       50
102
RTVSPost2010PropOp50
 70
     1
102
RTVSPost2010Prop51ColorIndex
 90
      256
102
RTVSPost2010Prop51ColorRGB
 90
-16777216
102
RTVSPost2010PropOp51
 70
     0
102
RTVSPost2010Prop52
140
1.0
102
RTVSPost2010PropOp52
 70
     0
102
RTVSPost2010Prop53
 90
        2
102
RTVSPost2010PropOp53
 70
     1
102
RTVSPost2010Prop54
  1
strokes_ogs.tif
102
RTVSPost2010PropOp54
 70
     1
102
RTVSPost2010Prop55
280
     0
102
RTVSPost2010PropOp55
 70
     1
102
RTVSPost2010Prop56
140
1.0
102
RTVSPost2010PropOp56
 70
     1
102
RTVSPost2010Prop57
140
1.0
102
RTVSPost2010PropOp57
 70
     1
102
RTVSPropertyOp0
 70
     1
102
RTVSPropertyOp1
 70
     1
102
RTVSPropertyOp2
 70
     1
102
RTVSPropertyOp3
 70
     1
102
RTVSPropertyOp4
 70
     1
102
RTVSPropertyOp5
 70
     1
102
RTVSPropertyOp6
 70
     1
102
RTVSPropertyOp7
 70
     1
102
RTVSPropertyOp8
 70
     1
102
RTVSPropertyOp9
 70
     1
102
RTVSPropertyOp10
 70
     1
102
RTVSPropertyOp11
 70
     1
102
RTVSPropertyOp12
 70
     1
102
RTVSPropertyOp13
 70
     1
102
RTVSPropertyOp14
 70
     1
102
RTVSPropertyOp15
 70
     1
102
RTVSPropertyOp16
 70
     1
102
RTVSPropertyOp17
 70
     1
102
RTVSPropertyOp18
 70
     1
102
RTVSPropertyOp19
 70
     1
102
RTVSPropertyOp20
 70
     1
102
RTVSPropertyOp21
 70
     1
102
RTVSPropertyOp22
 70
     1
102
RTVSPropertyOp23
 70
     1
102
RTVSPropertyOp24
 70
     1
102
RTVSPropertyOp25
 70
     1
102
RTVSPropertyOp26
 70
     1
102
RTVSPropertyOp27
 70
     1
102
RTVSPropertyOp28
 70
     1
102
RTVSPropertyOp29
 70
     1
102
RTVSPropertyOp30
 70
     1
102
RTVSPropertyOp31
 70
     1
102
RTVSPropertyOp32
 70
     1
102
RTVSPropertyOp33
 70
     1
102
RTVSPropertyOp34
 70
     1
102
RTVSPropertyOp35
 70
     1
102
RTVSPropertyOp36
 70
     1
102
RTVSPropertyOp37
 70
     1
102
RTVSPropertyOp38
 70
     1
102
RTVSPropertyOp39
 70
     1
102
RTVSPropertyOp40
 70
     1
102
RTVSPropertyOp41
 70
     1
102
RTVSPropertyOp42
 70
     1
102
RTVSPropertyOp43
 70
     1
102
RTVSPropertyOp44
 70
     1
102
RTVSPropertyOp45
 70
     1
102
RTVSPropertyOp46
 70
     1
102
RTVSPropertyOp47
 70
     1
102
RTVSPropertyOp48
 70
     1
102
RTVSPropertyOp49
 70
     1
102
RTVSPropertyOp50
 70
     1
102
RTVSPropertyOp51
 70
     0
102
RTVSPropertyOp52
 70
     0
102
RTVSPropertyOp53
 70
     1
102
RTVSPropertyOp54
 70
     1
102
RTVSPropertyOp55
 70
     1
102
RTVSPropertyOp56
 70
     1
102
RTVSPropertyOp57
 70
     1
102
RTVSPropertyOp58
 70
     1
102
RTVSPropertyOp59
 70
     1
102
RTVSPropertyOp60
 70
     1
102
RTVSPropertyOp61
 70
     1
102
RTVSPropertyOp62
 70
     1
  0
XRECORD
  5
2FE
102
{ACAD_REACTORS
330
2FD
102
}
330
2FD
100
AcDbXrecord
280
     1
102
RTVSPost2010Prop28
280
     0
102
RTVSPost2010PropOp28
 70
     1
102
RTVSPost2010Prop29
280
     1
102
RTVSPost2010PropOp29
 70
     1
102
RTVSPost2010Prop30
280
     1
102
RTVSPost2010PropOp30
 70
     1
102
RTVSPost2010Prop31
280
     0
102
RTVSPost2010PropOp31
 70
     1
102
RTVSPost2010Prop32
280
     0
102
RTVSPost2010PropOp32
 70
     1
102
RTVSPost2010Prop33
280
     0
102
RTVSPost2010PropOp33
 70
     1
102
RTVSPost2010Prop34
280
     0
102
RTVSPost2010PropOp34
 70
     1
102
RTVSPost2010Prop35
280
     0
102
RTVSPost2010PropOp35
 70
     1
102
RTVSPost2010Prop36
280
     0
102
RTVSPost2010PropOp36
 70
     1
102
RTVSPost2010Prop37
 90
       50
102
RTVSPost2010PropOp37
 70
     1
102
RTVSPost2010Prop38
140
0.0
102
RTVSPost2010PropOp38
 70
     1
102
RTVSPost2010Prop39
140
1.0
102
RTVSPost2010PropOp39
 70
     1
102
RTVSPost2010Prop40
 90
        0
102
RTVSPost2010PropOp40
 70
     1
102
RTVSPost2010Prop41ColorIndex
 90
       18
102
RTVSPost2010Prop41ColorRGB
 90
        0
102
RTVSPost2010PropOp41
 70
     1
102
RTVSPost2010Prop42
 90
       50
102
RTVSPost2010PropOp42
 70
     1
102
RTVSPost2010Prop43
 90
        3
102
RTVSPost2010PropOp43
 70
     1
102
RTVSPost2010Prop44ColorIndex
 90
        5
102
RTVSPost2010Prop44ColorRGB
 90
      255
102
RTVSPost2010PropOp44
 70
     1
102
RTVSPost2010Prop45
280
     0
102
RTVSPost2010PropOp45
 70
     1
102
RTVSPost2010Prop46
 90
       50
102
RTVSPost2010PropOp46
 70
     1
102
RTVSPost2010Prop47
 90
       50
102
RTVSPost2010PropOp47
 70
     1
102
RTVSPost2010Prop48
 90
       50
102
RTVSPost2010PropOp48
 70
     1
102
RTVSPost2010Prop49
280
     0
102
RTVSPost2010PropOp49
 70
     1
102
RTVSPost2010Prop50
 90
       50
102
RTVSPost2010PropOp50
 70
     1
102
RTVSPost2010Prop51ColorIndex
 90
      256
102
RTVSPost2010Prop51ColorRGB
 90
-16777216
102
RTVSPost2010PropOp51
 70
     0
102
RTVSPost2010Prop52
140
1.0
102
RTVSPost2010PropOp52
 70
     0
102
RTVSPost2010Prop53
 90
        2
102
RTVSPost2010PropOp53
 70
     1
102
RTVSPost2010Prop54
  1
strokes_ogs.tif
102
RTVSPost2010PropOp54
 70
     1
102
RTVSPost2010Prop55
280
     0
102
RTVSPost2010PropOp55
 70
     1
102
RTVSPost2010Prop56
140
1.0
102
RTVSPost2010PropOp56
 70
     1
102
RTVSPost2010Prop57
140
1.0
102
RTVSPost2010PropOp57
 70
     1
102
RTVSPropertyOp0
 70
     1
102
RTVSPropertyOp1
 70
     1
102
RTVSPropertyOp2
 70
     1
102
RTVSPropertyOp3
 70
     1
102
RTVSPropertyOp4
 70
     1
102
RTVSPropertyOp5
 70
     1
102
RTVSPropertyOp6
 70
     1
102
RTVSPropertyOp7
 70
     1
102
RTVSPropertyOp8
 70
     1
102
RTVSPropertyOp9
 70
     1
102
RTVSPropertyOp10
 70
     1
102
RTVSPropertyOp11
 70
     1
102
RTVSPropertyOp12
 70
     1
102
RTVSPropertyOp13
 70
     1
102
RTVSPropertyOp14
 70
     1
102
RTVSPropertyOp15
 70
     1
102
RTVSPropertyOp16
 70
     1
102
RTVSPropertyOp17
 70
     1
102
RTVSPropertyOp18
 70
     1
102
RTVSPropertyOp19
 70
     1
102
RTVSPropertyOp20
 70
     1
102
RTVSPropertyOp21
 70
     1
102
RTVSPropertyOp22
 70
     1
102
RTVSPropertyOp23
 70
     1
102
RTVSPropertyOp24
 70
     1
102
RTVSPropertyOp25
 70
     1
102
RTVSPropertyOp26
 70
     1
102
RTVSPropertyOp27
 70
     1
102
RTVSPropertyOp28
 70
     1
102
RTVSPropertyOp29
 70
     1
102
RTVSPropertyOp30
 70
     1
102
RTVSPropertyOp31
 70
     1
102
RTVSPropertyOp32
 70
     1
102
RTVSPropertyOp33
 70
     1
102
RTVSPropertyOp34
 70
     1
102
RTVSPropertyOp35
 70
     1
102
RTVSPropertyOp36
 70
     1
102
RTVSPropertyOp37
 70
     1
102
RTVSPropertyOp38
 70
     1
102
RTVSPropertyOp39
 70
     1
102
RTVSPropertyOp40
 70
     1
102
RTVSPropertyOp41
 70
     1
102
RTVSPropertyOp42
 70
     1
102
RTVSPropertyOp43
 70
     1
102
RTVSPropertyOp44
 70
     1
102
RTVSPropertyOp45
 70
     1
102
RTVSPropertyOp46
 70
     1
102
RTVSPropertyOp47
 70
     1
102
RTVSPropertyOp48
 70
     1
102
RTVSPropertyOp49
 70
     1
102
RTVSPropertyOp50
 70
     1
102
RTVSPropertyOp51
 70
     0
102
RTVSPropertyOp52
 70
     0
102
RTVSPropertyOp53
 70
     1
102
RTVSPropertyOp54
 70
     1
102
RTVSPropertyOp55
 70
     1
102
RTVSPropertyOp56
 70
     1
102
RTVSPropertyOp57
 70
     1
102
RTVSPropertyOp58
 70
     1
102
RTVSPropertyOp59
 70
     1
102
RTVSPropertyOp60
 70
     1
102
RTVSPropertyOp61
 70
     1
102
RTVSPropertyOp62
 70
     1
  0
XRECORD
  5
302
102
{ACAD_REACTORS
330
301
102
}
330
301
100
AcDbXrecord
280
     1
102
RTVSPost2010Prop28
280
     0
102
RTVSPost2010PropOp28
 70
     1
102
RTVSPost2010Prop29
280
     1
102
RTVSPost2010PropOp29
 70
     1
102
RTVSPost2010Prop30
280
     1
102
RTVSPost2010PropOp30
 70
     1
102
RTVSPost2010Prop31
280
     0
102
RTVSPost2010PropOp31
 70
     1
102
RTVSPost2010Prop32
280
     0
102
RTVSPost2010PropOp32
 70
     1
102
RTVSPost2010Prop33
280
     0
102
RTVSPost2010PropOp33
 70
     1
102
RTVSPost2010Prop34
280
     0
102
RTVSPost2010PropOp34
 70
     1
102
RTVSPost2010Prop35
280
     0
102
RTVSPost2010PropOp35
 70
     1
102
RTVSPost2010Prop36
280
     0
102
RTVSPost2010PropOp36
 70
     1
102
RTVSPost2010Prop37
 90
       50
102
RTVSPost2010PropOp37
 70
     1
102
RTVSPost2010Prop38
140
0.0
102
RTVSPost2010PropOp38
 70
     1
102
RTVSPost2010Prop39
140
1.0
102
RTVSPost2010PropOp39
 70
     1
102
RTVSPost2010Prop40
 90
        0
102
RTVSPost2010PropOp40
 70
     1
102
RTVSPost2010Prop41ColorIndex
 90
       18
102
RTVSPost2010Prop41ColorRGB
 90
        0
102
RTVSPost2010PropOp41
 70
     1
102
RTVSPost2010Prop42
 90
       50
102
RTVSPost2010PropOp42
 70
     1
102
RTVSPost2010Prop43
 90
        3
102
RTVSPost2010PropOp43
 70
     1
102
RTVSPost2010Prop44ColorIndex
 90
        5
102
RTVSPost2010Prop44ColorRGB
 90
      255
102
RTVSPost2010PropOp44
 70
     1
102
RTVSPost2010Prop45
280
     0
102
RTVSPost2010PropOp45
 70
     1
102
RTVSPost2010Prop46
 90
       50
102
RTVSPost2010PropOp46
 70
     1
102
RTVSPost2010Prop47
 90
       50
102
RTVSPost2010PropOp47
 70
     1
102
RTVSPost2010Prop48
 90
       50
102
RTVSPost2010PropOp48
 70
     1
102
RTVSPost2010Prop49
280
     0
102
RTVSPost2010PropOp49
 70
     1
102
RTVSPost2010Prop50
 90
       50
102
RTVSPost2010PropOp50
 70
     1
102
RTVSPost2010Prop51ColorIndex
 90
      256
102
RTVSPost2010Prop51ColorRGB
 90
-16777216
102
RTVSPost2010PropOp51
 70
     0
102
RTVSPost2010Prop52
140
1.0
102
RTVSPost2010PropOp52
 70
     0
102
RTVSPost2010Prop53
 90
        2
102
RTVSPost2010PropOp53
 70
     1
102
RTVSPost2010Prop54
  1
strokes_ogs.tif
102
RTVSPost2010PropOp54
 70
     1
102
RTVSPost2010Prop55
280
     0
102
RTVSPost2010PropOp55
 70
     1
102
RTVSPost2010Prop56
140
1.0
102
RTVSPost2010PropOp56
 70
     1
102
RTVSPost2010Prop57
140
1.0
102
RTVSPost2010PropOp57
 70
     1
102
RTVSPropertyOp0
 70
     1
102
RTVSPropertyOp1
 70
     1
102
RTVSPropertyOp2
 70
     1
102
RTVSPropertyOp3
 70
     1
102
RTVSPropertyOp4
 70
     1
102
RTVSPropertyOp5
 70
     1
102
RTVSPropertyOp6
 70
     1
102
RTVSPropertyOp7
 70
     1
102
RTVSPropertyOp8
 70
     1
102
RTVSPropertyOp9
 70
     1
102
RTVSPropertyOp10
 70
     1
102
RTVSPropertyOp11
 70
     1
102
RTVSPropertyOp12
 70
     1
102
RTVSPropertyOp13
 70
     1
102
RTVSPropertyOp14
 70
     1
102
RTVSPropertyOp15
 70
     1
102
RTVSPropertyOp16
 70
     1
102
RTVSPropertyOp17
 70
     1
102
RTVSPropertyOp18
 70
     1
102
RTVSPropertyOp19
 70
     1
102
RTVSPropertyOp20
 70
     1
102
RTVSPropertyOp21
 70
     1
102
RTVSPropertyOp22
 70
     1
102
RTVSPropertyOp23
 70
     1
102
RTVSPropertyOp24
 70
     1
102
RTVSPropertyOp25
 70
     1
102
RTVSPropertyOp26
 70
     1
102
RTVSPropertyOp27
 70
     1
102
RTVSPropertyOp28
 70
     1
102
RTVSPropertyOp29
 70
     1
102
RTVSPropertyOp30
 70
     1
102
RTVSPropertyOp31
 70
     1
102
RTVSPropertyOp32
 70
     1
102
RTVSPropertyOp33
 70
     1
102
RTVSPropertyOp34
 70
     1
102
RTVSPropertyOp35
 70
     1
102
RTVSPropertyOp36
 70
     1
102
RTVSPropertyOp37
 70
     1
102
RTVSPropertyOp38
 70
     1
102
RTVSPropertyOp39
 70
     1
102
RTVSPropertyOp40
 70
     1
102
RTVSPropertyOp41
 70
     1
102
RTVSPropertyOp42
 70
     1
102
RTVSPropertyOp43
 70
     1
102
RTVSPropertyOp44
 70
     1
102
RTVSPropertyOp45
 70
     1
102
RTVSPropertyOp46
 70
     1
102
RTVSPropertyOp47
 70
     1
102
RTVSPropertyOp48
 70
     1
102
RTVSPropertyOp49
 70
     1
102
RTVSPropertyOp50
 70
     1
102
RTVSPropertyOp51
 70
     0
102
RTVSPropertyOp52
 70
     0
102
RTVSPropertyOp53
 70
     1
102
RTVSPropertyOp54
 70
     1
102
RTVSPropertyOp55
 70
     1
102
RTVSPropertyOp56
 70
     1
102
RTVSPropertyOp57
 70
     1
102
RTVSPropertyOp58
 70
     1
102
RTVSPropertyOp59
 70
     1
102
RTVSPropertyOp60
 70
     1
102
RTVSPropertyOp61
 70
     1
102
RTVSPropertyOp62
 70
     1
  0
XRECORD
  5
31C
102
{ACAD_REACTORS
330
31B
102
}
330
31B
100
AcDbXrecord
280
     1
102
RTVSPost2010Prop28
280
     0
102
RTVSPost2010PropOp28
 70
     0
102
RTVSPost2010Prop29
280
     1
102
RTVSPost2010PropOp29
 70
     0
102
RTVSPost2010Prop30
280
     1
102
RTVSPost2010PropOp30
 70
     0
102
RTVSPost2010Prop31
280
     0
102
RTVSPost2010PropOp31
 70
     0
102
RTVSPost2010Prop32
280
     0
102
RTVSPost2010PropOp32
 70
     0
102
RTVSPost2010Prop33
280
     0
102
RTVSPost2010PropOp33
 70
     0
102
RTVSPost2010Prop34
280
     0
102
RTVSPost2010PropOp34
 70
     0
102
RTVSPost2010Prop35
280
     0
102
RTVSPost2010PropOp35
 70
     0
102
RTVSPost2010Prop36
280
     0
102
RTVSPost2010PropOp36
 70
     0
102
RTVSPost2010Prop37
 90
       50
102
RTVSPost2010PropOp37
 70
     0
102
RTVSPost2010Prop38
140
0.0
102
RTVSPost2010PropOp38
 70
     0
102
RTVSPost2010Prop39
140
1.0
102
RTVSPost2010PropOp39
 70
     0
102
RTVSPost2010Prop40
 90
        0
102
RTVSPost2010PropOp40
 70
     0
102
RTVSPost2010Prop41ColorIndex
 90
       18
102
RTVSPost2010Prop41ColorRGB
 90
        0
102
RTVSPost2010PropOp41
 70
     0
102
RTVSPost2010Prop42
 90
       50
102
RTVSPost2010PropOp42
 70
     0
102
RTVSPost2010Prop43
 90
        3
102
RTVSPost2010PropOp43
 70
     0
102
RTVSPost2010Prop44ColorIndex
 90
        5
102
RTVSPost2010Prop44ColorRGB
 90
      255
102
RTVSPost2010PropOp44
 70
     0
102
RTVSPost2010Prop45
280
     0
102
RTVSPost2010PropOp45
 70
     0
102
RTVSPost2010Prop46
 90
       50
102
RTVSPost2010PropOp46
 70
     0
102
RTVSPost2010Prop47
 90
       50
102
RTVSPost2010PropOp47
 70
     0
102
RTVSPost2010Prop48
 90
       50
102
RTVSPost2010PropOp48
 70
     0
102
RTVSPost2010Prop49
280
     0
102
RTVSPost2010PropOp49
 70
     0
102
RTVSPost2010Prop50
 90
       50
102
RTVSPost2010PropOp50
 70
     0
102
RTVSPost2010Prop51ColorIndex
 90
      256
102
RTVSPost2010Prop51ColorRGB
 90
-16777216
102
RTVSPost2010PropOp51
 70
     0
102
RTVSPost2010Prop52
140
1.0
102
RTVSPost2010PropOp52
 70
     0
102
RTVSPost2010Prop53
 90
        2
102
RTVSPost2010PropOp53
 70
     0
102
RTVSPost2010Prop54
  1
strokes_ogs.tif
102
RTVSPost2010PropOp54
 70
     0
102
RTVSPost2010Prop55
280
     0
102
RTVSPost2010PropOp55
 70
     0
102
RTVSPost2010Prop56
140
1.0
102
RTVSPost2010PropOp56
 70
     0
102
RTVSPost2010Prop57
140
1.0
102
RTVSPost2010PropOp57
 70
     0
102
RTVSPropertyOp0
 70
     0
102
RTVSPropertyOp1
 70
     0
102
RTVSPropertyOp2
 70
     0
102
RTVSPropertyOp3
 70
     0
102
RTVSPropertyOp4
 70
     0
102
RTVSPropertyOp5
 70
     0
102
RTVSPropertyOp6
 70
     0
102
RTVSPropertyOp7
 70
     0
102
RTVSPropertyOp8
 70
     0
102
RTVSPropertyOp9
 70
     0
102
RTVSPropertyOp10
 70
     0
102
RTVSPropertyOp11
 70
     0
102
RTVSPropertyOp12
 70
     0
102
RTVSPropertyOp13
 70
     0
102
RTVSPropertyOp14
 70
     2
102
RTVSPropertyOp15
 70
     0
102
RTVSPropertyOp16
 70
     0
102
RTVSPropertyOp17
 70
     0
102
RTVSPropertyOp18
 70
     0
102
RTVSPropertyOp19
 70
     0
102
RTVSPropertyOp20
 70
     0
102
RTVSPropertyOp21
 70
     0
102
RTVSPropertyOp22
 70
     0
102
RTVSPropertyOp23
 70
     0
102
RTVSPropertyOp24
 70
     0
102
RTVSPropertyOp25
 70
     0
102
RTVSPropertyOp26
 70
     0
102
RTVSPropertyOp27
 70
     0
102
RTVSPropertyOp28
 70
     0
102
RTVSPropertyOp29
 70
     0
102
RTVSPropertyOp30
 70
     0
102
RTVSPropertyOp31
 70
     0
102
RTVSPropertyOp32
 70
     0
102
RTVSPropertyOp33
 70
     0
102
RTVSPropertyOp34
 70
     0
102
RTVSPropertyOp35
 70
     0
102
RTVSPropertyOp36
 70
     0
102
RTVSPropertyOp37
 70
     0
102
RTVSPropertyOp38
 70
     0
102
RTVSPropertyOp39
 70
     0
102
RTVSPropertyOp40
 70
     0
102
RTVSPropertyOp41
 70
     0
102
RTVSPropertyOp42
 70
     0
102
RTVSPropertyOp43
 70
     0
102
RTVSPropertyOp44
 70
     0
102
RTVSPropertyOp45
 70
     0
102
RTVSPropertyOp46
 70
     0
102
RTVSPropertyOp47
 70
     0
102
RTVSPropertyOp48
 70
     0
102
RTVSPropertyOp49
 70
     0
102
RTVSPropertyOp50
 70
     0
102
RTVSPropertyOp51
 70
     0
102
RTVSPropertyOp52
 70
     0
102
RTVSPropertyOp53
 70
     0
102
RTVSPropertyOp54
 70
     0
102
RTVSPropertyOp55
 70
     0
102
RTVSPropertyOp56
 70
     0
102
RTVSPropertyOp57
 70
     0
102
RTVSPropertyOp58
 70
     1
102
RTVSPropertyOp59
 70
     1
102
RTVSPropertyOp60
 70
     1
102
RTVSPropertyOp61
 70
     1
102
RTVSPropertyOp62
 70
     1
  0
XRECORD
  5
30A
102
{ACAD_REACTORS
330
309
102
}
330
309
100
AcDbXrecord
280
     1
102
RTVSPost2010Prop28
280
     0
102
RTVSPost2010PropOp28
 70
     1
102
RTVSPost2010Prop29
280
     1
102
RTVSPost2010PropOp29
 70
     1
102
RTVSPost2010Prop30
280
     1
102
RTVSPost2010PropOp30
 70
     1
102
RTVSPost2010Prop31
280
     0
102
RTVSPost2010PropOp31
 70
     1
102
RTVSPost2010Prop32
280
     0
102
RTVSPost2010PropOp32
 70
     1
102
RTVSPost2010Prop33
280
     0
102
RTVSPost2010PropOp33
 70
     1
102
RTVSPost2010Prop34
280
     0
102
RTVSPost2010PropOp34
 70
     1
102
RTVSPost2010Prop35
280
     0
102
RTVSPost2010PropOp35
 70
     1
102
RTVSPost2010Prop36
280
     0
102
RTVSPost2010PropOp36
 70
     1
102
RTVSPost2010Prop37
 90
       50
102
RTVSPost2010PropOp37
 70
     1
102
RTVSPost2010Prop38
140
0.0
102
RTVSPost2010PropOp38
 70
     1
102
RTVSPost2010Prop39
140
1.0
102
RTVSPost2010PropOp39
 70
     1
102
RTVSPost2010Prop40
 90
        0
102
RTVSPost2010PropOp40
 70
     1
102
RTVSPost2010Prop41ColorIndex
 90
       18
102
RTVSPost2010Prop41ColorRGB
 90
        0
102
RTVSPost2010PropOp41
 70
     1
102
RTVSPost2010Prop42
 90
       50
102
RTVSPost2010PropOp42
 70
     1
102
RTVSPost2010Prop43
 90
        3
102
RTVSPost2010PropOp43
 70
     1
102
RTVSPost2010Prop44ColorIndex
 90
        5
102
RTVSPost2010Prop44ColorRGB
 90
      255
102
RTVSPost2010PropOp44
 70
     1
102
RTVSPost2010Prop45
280
     0
102
RTVSPost2010PropOp45
 70
     1
102
RTVSPost2010Prop46
 90
       50
102
RTVSPost2010PropOp46
 70
     1
102
RTVSPost2010Prop47
 90
       50
102
RTVSPost2010PropOp47
 70
     1
102
RTVSPost2010Prop48
 90
       50
102
RTVSPost2010PropOp48
 70
     1
102
RTVSPost2010Prop49
280
     0
102
RTVSPost2010PropOp49
 70
     1
102
RTVSPost2010Prop50
 90
       50
102
RTVSPost2010PropOp50
 70
     1
102
RTVSPost2010Prop51ColorIndex
 90
      256
102
RTVSPost2010Prop51ColorRGB
 90
-16777216
102
RTVSPost2010PropOp51
 70
     0
102
RTVSPost2010Prop52
140
1.0
102
RTVSPost2010PropOp52
 70
     0
102
RTVSPost2010Prop53
 90
        2
102
RTVSPost2010PropOp53
 70
     1
102
RTVSPost2010Prop54
  1
strokes_ogs.tif
102
RTVSPost2010PropOp54
 70
     1
102
RTVSPost2010Prop55
280
     0
102
RTVSPost2010PropOp55
 70
     1
102
RTVSPost2010Prop56
140
1.0
102
RTVSPost2010PropOp56
 70
     1
102
RTVSPost2010Prop57
140
1.0
102
RTVSPost2010PropOp57
 70
     1
102
RTVSPropertyOp0
 70
     1
102
RTVSPropertyOp1
 70
     1
102
RTVSPropertyOp2
 70
     1
102
RTVSPropertyOp3
 70
     1
102
RTVSPropertyOp4
 70
     1
102
RTVSPropertyOp5
 70
     1
102
RTVSPropertyOp6
 70
     1
102
RTVSPropertyOp7
 70
     1
102
RTVSPropertyOp8
 70
     1
102
RTVSPropertyOp9
 70
     1
102
RTVSPropertyOp10
 70
     1
102
RTVSPropertyOp11
 70
     1
102
RTVSPropertyOp12
 70
     1
102
RTVSPropertyOp13
 70
     1
102
RTVSPropertyOp14
 70
     1
102
RTVSPropertyOp15
 70
     1
102
RTVSPropertyOp16
 70
     1
102
RTVSPropertyOp17
 70
     1
102
RTVSPropertyOp18
 70
     1
102
RTVSPropertyOp19
 70
     1
102
RTVSPropertyOp20
 70
     1
102
RTVSPropertyOp21
 70
     1
102
RTVSPropertyOp22
 70
     1
102
RTVSPropertyOp23
 70
     1
102
RTVSPropertyOp24
 70
     1
102
RTVSPropertyOp25
 70
     1
102
RTVSPropertyOp26
 70
     1
102
RTVSPropertyOp27
 70
     1
102
RTVSPropertyOp28
 70
     1
102
RTVSPropertyOp29
 70
     1
102
RTVSPropertyOp30
 70
     1
102
RTVSPropertyOp31
 70
     1
102
RTVSPropertyOp32
 70
     1
102
RTVSPropertyOp33
 70
     1
102
RTVSPropertyOp34
 70
     1
102
RTVSPropertyOp35
 70
     1
102
RTVSPropertyOp36
 70
     1
102
RTVSPropertyOp37
 70
     1
102
RTVSPropertyOp38
 70
     1
102
RTVSPropertyOp39
 70
     1
102
RTVSPropertyOp40
 70
     1
102
RTVSPropertyOp41
 70
     1
102
RTVSPropertyOp42
 70
     1
102
RTVSPropertyOp43
 70
     1
102
RTVSPropertyOp44
 70
     1
102
RTVSPropertyOp45
 70
     1
102
RTVSPropertyOp46
 70
     1
102
RTVSPropertyOp47
 70
     1
102
RTVSPropertyOp48
 70
     1
102
RTVSPropertyOp49
 70
     1
102
RTVSPropertyOp50
 70
     1
102
RTVSPropertyOp51
 70
     0
102
RTVSPropertyOp52
 70
     0
102
RTVSPropertyOp53
 70
     1
102
RTVSPropertyOp54
 70
     1
102
RTVSPropertyOp55
 70
     1
102
RTVSPropertyOp56
 70
     1
102
RTVSPropertyOp57
 70
     1
102
RTVSPropertyOp58
 70
     1
102
RTVSPropertyOp59
 70
     1
102
RTVSPropertyOp60
 70
     1
102
RTVSPropertyOp61
 70
     1
102
RTVSPropertyOp62
 70
     1
  0
XRECORD
  5
2EE
102
{ACAD_REACTORS
330
2ED
102
}
330
2ED
100
AcDbXrecord
280
     1
102
RTVSPost2010Prop28
280
     0
102
RTVSPost2010PropOp28
 70
     1
102
RTVSPost2010Prop29
280
     1
102
RTVSPost2010PropOp29
 70
     1
102
RTVSPost2010Prop30
280
     1
102
RTVSPost2010PropOp30
 70
     1
102
RTVSPost2010Prop31
280
     0
102
RTVSPost2010PropOp31
 70
     1
102
RTVSPost2010Prop32
280
     0
102
RTVSPost2010PropOp32
 70
     1
102
RTVSPost2010Prop33
280
     0
102
RTVSPost2010PropOp33
 70
     1
102
RTVSPost2010Prop34
280
     0
102
RTVSPost2010PropOp34
 70
     1
102
RTVSPost2010Prop35
280
     0
102
RTVSPost2010PropOp35
 70
     1
102
RTVSPost2010Prop36
280
     0
102
RTVSPost2010PropOp36
 70
     1
102
RTVSPost2010Prop37
 90
       50
102
RTVSPost2010PropOp37
 70
     1
102
RTVSPost2010Prop38
140
0.0
102
RTVSPost2010PropOp38
 70
     1
102
RTVSPost2010Prop39
140
1.0
102
RTVSPost2010PropOp39
 70
     1
102
RTVSPost2010Prop40
 90
        0
102
RTVSPost2010PropOp40
 70
     1
102
RTVSPost2010Prop41ColorIndex
 90
       18
102
RTVSPost2010Prop41ColorRGB
 90
        0
102
RTVSPost2010PropOp41
 70
     1
102
RTVSPost2010Prop42
 90
       50
102
RTVSPost2010PropOp42
 70
     1
102
RTVSPost2010Prop43
 90
        3
102
RTVSPost2010PropOp43
 70
     1
102
RTVSPost2010Prop44ColorIndex
 90
        5
102
RTVSPost2010Prop44ColorRGB
 90
      255
102
RTVSPost2010PropOp44
 70
     1
102
RTVSPost2010Prop45
280
     0
102
RTVSPost2010PropOp45
 70
     1
102
RTVSPost2010Prop46
 90
       50
102
RTVSPost2010PropOp46
 70
     1
102
RTVSPost2010Prop47
 90
       50
102
RTVSPost2010PropOp47
 70
     1
102
RTVSPost2010Prop48
 90
       50
102
RTVSPost2010PropOp48
 70
     1
102
RTVSPost2010Prop49
280
     0
102
RTVSPost2010PropOp49
 70
     1
102
RTVSPost2010Prop50
 90
       50
102
RTVSPost2010PropOp50
 70
     1
102
RTVSPost2010Prop51ColorIndex
 90
      256
102
RTVSPost2010Prop51ColorRGB
 90
-16777216
102
RTVSPost2010PropOp51
 70
     0
102
RTVSPost2010Prop52
140
1.0
102
RTVSPost2010PropOp52
 70
     0
102
RTVSPost2010Prop53
 90
        2
102
RTVSPost2010PropOp53
 70
     1
102
RTVSPost2010Prop54
  1
strokes_ogs.tif
102
RTVSPost2010PropOp54
 70
     1
102
RTVSPost2010Prop55
280
     0
102
RTVSPost2010PropOp55
 70
     1
102
RTVSPost2010Prop56
140
1.0
102
RTVSPost2010PropOp56
 70
     1
102
RTVSPost2010Prop57
140
1.0
102
RTVSPost2010PropOp57
 70
     1
102
RTVSPropertyOp0
 70
     1
102
RTVSPropertyOp1
 70
     1
102
RTVSPropertyOp2
 70
     1
102
RTVSPropertyOp3
 70
     1
102
RTVSPropertyOp4
 70
     1
102
RTVSPropertyOp5
 70
     1
102
RTVSPropertyOp6
 70
     1
102
RTVSPropertyOp7
 70
     1
102
RTVSPropertyOp8
 70
     1
102
RTVSPropertyOp9
 70
     1
102
RTVSPropertyOp10
 70
     1
102
RTVSPropertyOp11
 70
     1
102
RTVSPropertyOp12
 70
     1
102
RTVSPropertyOp13
 70
     1
102
RTVSPropertyOp14
 70
     1
102
RTVSPropertyOp15
 70
     1
102
RTVSPropertyOp16
 70
     1
102
RTVSPropertyOp17
 70
     1
102
RTVSPropertyOp18
 70
     1
102
RTVSPropertyOp19
 70
     1
102
RTVSPropertyOp20
 70
     1
102
RTVSPropertyOp21
 70
     1
102
RTVSPropertyOp22
 70
     1
102
RTVSPropertyOp23
 70
     1
102
RTVSPropertyOp24
 70
     1
102
RTVSPropertyOp25
 70
     1
102
RTVSPropertyOp26
 70
     1
102
RTVSPropertyOp27
 70
     1
102
RTVSPropertyOp28
 70
     1
102
RTVSPropertyOp29
 70
     1
102
RTVSPropertyOp30
 70
     1
102
RTVSPropertyOp31
 70
     1
102
RTVSPropertyOp32
 70
     1
102
RTVSPropertyOp33
 70
     1
102
RTVSPropertyOp34
 70
     1
102
RTVSPropertyOp35
 70
     1
102
RTVSPropertyOp36
 70
     1
102
RTVSPropertyOp37
 70
     1
102
RTVSPropertyOp38
 70
     1
102
RTVSPropertyOp39
 70
     1
102
RTVSPropertyOp40
 70
     1
102
RTVSPropertyOp41
 70
     1
102
RTVSPropertyOp42
 70
     1
102
RTVSPropertyOp43
 70
     1
102
RTVSPropertyOp44
 70
     1
102
RTVSPropertyOp45
 70
     1
102
RTVSPropertyOp46
 70
     1
102
RTVSPropertyOp47
 70
     1
102
RTVSPropertyOp48
 70
     1
102
RTVSPropertyOp49
 70
     1
102
RTVSPropertyOp50
 70
     1
102
RTVSPropertyOp51
 70
     0
102
RTVSPropertyOp52
 70
     0
102
RTVSPropertyOp53
 70
     1
102
RTVSPropertyOp54
 70
     1
102
RTVSPropertyOp55
 70
     1
102
RTVSPropertyOp56
 70
     1
102
RTVSPropertyOp57
 70
     1
102
RTVSPropertyOp58
 70
     1
102
RTVSPropertyOp59
 70
     1
102
RTVSPropertyOp60
 70
     1
102
RTVSPropertyOp61
 70
     1
102
RTVSPropertyOp62
 70
     1
  0
XRECORD
  5
2F0
102
{ACAD_REACTORS
330
2EF
102
}
330
2EF
100
AcDbXrecord
280
     1
102
RTVSPost2010Prop28
280
     0
102
RTVSPost2010PropOp28
 70
     1
102
RTVSPost2010Prop29
280
     1
102
RTVSPost2010PropOp29
 70
     1
102
RTVSPost2010Prop30
280
     1
102
RTVSPost2010PropOp30
 70
     1
102
RTVSPost2010Prop31
280
     0
102
RTVSPost2010PropOp31
 70
     1
102
RTVSPost2010Prop32
280
     0
102
RTVSPost2010PropOp32
 70
     1
102
RTVSPost2010Prop33
280
     0
102
RTVSPost2010PropOp33
 70
     1
102
RTVSPost2010Prop34
280
     0
102
RTVSPost2010PropOp34
 70
     1
102
RTVSPost2010Prop35
280
     0
102
RTVSPost2010PropOp35
 70
     1
102
RTVSPost2010Prop36
280
     0
102
RTVSPost2010PropOp36
 70
     1
102
RTVSPost2010Prop37
 90
       50
102
RTVSPost2010PropOp37
 70
     1
102
RTVSPost2010Prop38
140
0.0
102
RTVSPost2010PropOp38
 70
     1
102
RTVSPost2010Prop39
140
1.0
102
RTVSPost2010PropOp39
 70
     1
102
RTVSPost2010Prop40
 90
        0
102
RTVSPost2010PropOp40
 70
     1
102
RTVSPost2010Prop41ColorIndex
 90
       18
102
RTVSPost2010Prop41ColorRGB
 90
        0
102
RTVSPost2010PropOp41
 70
     1
102
RTVSPost2010Prop42
 90
       50
102
RTVSPost2010PropOp42
 70
     1
102
RTVSPost2010Prop43
 90
        3
102
RTVSPost2010PropOp43
 70
     1
102
RTVSPost2010Prop44ColorIndex
 90
        5
102
RTVSPost2010Prop44ColorRGB
 90
      255
102
RTVSPost2010PropOp44
 70
     1
102
RTVSPost2010Prop45
280
     0
102
RTVSPost2010PropOp45
 70
     1
102
RTVSPost2010Prop46
 90
       50
102
RTVSPost2010PropOp46
 70
     1
102
RTVSPost2010Prop47
 90
       50
102
RTVSPost2010PropOp47
 70
     1
102
RTVSPost2010Prop48
 90
       50
102
RTVSPost2010PropOp48
 70
     1
102
RTVSPost2010Prop49
280
     0
102
RTVSPost2010PropOp49
 70
     1
102
RTVSPost2010Prop50
 90
       50
102
RTVSPost2010PropOp50
 70
     1
102
RTVSPost2010Prop51ColorIndex
 90
      256
102
RTVSPost2010Prop51ColorRGB
 90
-16777216
102
RTVSPost2010PropOp51
 70
     0
102
RTVSPost2010Prop52
140
1.0
102
RTVSPost2010PropOp52
 70
     0
102
RTVSPost2010Prop53
 90
        2
102
RTVSPost2010PropOp53
 70
     1
102
RTVSPost2010Prop54
  1
strokes_ogs.tif
102
RTVSPost2010PropOp54
 70
     1
102
RTVSPost2010Prop55
280
     0
102
RTVSPost2010PropOp55
 70
     1
102
RTVSPost2010Prop56
140
1.0
102
RTVSPost2010PropOp56
 70
     1
102
RTVSPost2010Prop57
140
1.0
102
RTVSPost2010PropOp57
 70
     1
102
RTVSPropertyOp0
 70
     1
102
RTVSPropertyOp1
 70
     1
102
RTVSPropertyOp2
 70
     1
102
RTVSPropertyOp3
 70
     1
102
RTVSPropertyOp4
 70
     1
102
RTVSPropertyOp5
 70
     1
102
RTVSPropertyOp6
 70
     1
102
RTVSPropertyOp7
 70
     1
102
RTVSPropertyOp8
 70
     1
102
RTVSPropertyOp9
 70
     1
102
RTVSPropertyOp10
 70
     1
102
RTVSPropertyOp11
 70
     1
102
RTVSPropertyOp12
 70
     1
102
RTVSPropertyOp13
 70
     1
102
RTVSPropertyOp14
 70
     1
102
RTVSPropertyOp15
 70
     1
102
RTVSPropertyOp16
 70
     1
102
RTVSPropertyOp17
 70
     1
102
RTVSPropertyOp18
 70
     1
102
RTVSPropertyOp19
 70
     1
102
RTVSPropertyOp20
 70
     1
102
RTVSPropertyOp21
 70
     1
102
RTVSPropertyOp22
 70
     1
102
RTVSPropertyOp23
 70
     1
102
RTVSPropertyOp24
 70
     1
102
RTVSPropertyOp25
 70
     1
102
RTVSPropertyOp26
 70
     1
102
RTVSPropertyOp27
 70
     1
102
RTVSPropertyOp28
 70
     1
102
RTVSPropertyOp29
 70
     1
102
RTVSPropertyOp30
 70
     1
102
RTVSPropertyOp31
 70
     1
102
RTVSPropertyOp32
 70
     1
102
RTVSPropertyOp33
 70
     1
102
RTVSPropertyOp34
 70
     1
102
RTVSPropertyOp35
 70
     1
102
RTVSPropertyOp36
 70
     1
102
RTVSPropertyOp37
 70
     1
102
RTVSPropertyOp38
 70
     1
102
RTVSPropertyOp39
 70
     1
102
RTVSPropertyOp40
 70
     1
102
RTVSPropertyOp41
 70
     1
102
RTVSPropertyOp42
 70
     1
102
RTVSPropertyOp43
 70
     1
102
RTVSPropertyOp44
 70
     1
102
RTVSPropertyOp45
 70
     1
102
RTVSPropertyOp46
 70
     1
102
RTVSPropertyOp47
 70
     1
102
RTVSPropertyOp48
 70
     1
102
RTVSPropertyOp49
 70
     1
102
RTVSPropertyOp50
 70
     1
102
RTVSPropertyOp51
 70
     0
102
RTVSPropertyOp52
 70
     0
102
RTVSPropertyOp53
 70
     1
102
RTVSPropertyOp54
 70
     1
102
RTVSPropertyOp55
 70
     1
102
RTVSPropertyOp56
 70
     1
102
RTVSPropertyOp57
 70
     1
102
RTVSPropertyOp58
 70
     1
102
RTVSPropertyOp59
 70
     1
102
RTVSPropertyOp60
 70
     1
102
RTVSPropertyOp61
 70
     1
102
RTVSPropertyOp62
 70
     1
  0
XRECORD
  5
2F2
102
{ACAD_REACTORS
330
2F1
102
}
330
2F1
100
AcDbXrecord
280
     1
102
RTVSPost2010Prop28
280
     0
102
RTVSPost2010PropOp28
 70
     1
102
RTVSPost2010Prop29
280
     1
102
RTVSPost2010PropOp29
 70
     1
102
RTVSPost2010Prop30
280
     1
102
RTVSPost2010PropOp30
 70
     1
102
RTVSPost2010Prop31
280
     0
102
RTVSPost2010PropOp31
 70
     1
102
RTVSPost2010Prop32
280
     0
102
RTVSPost2010PropOp32
 70
     1
102
RTVSPost2010Prop33
280
     0
102
RTVSPost2010PropOp33
 70
     1
102
RTVSPost2010Prop34
280
     0
102
RTVSPost2010PropOp34
 70
     1
102
RTVSPost2010Prop35
280
     0
102
RTVSPost2010PropOp35
 70
     1
102
RTVSPost2010Prop36
280
     0
102
RTVSPost2010PropOp36
 70
     1
102
RTVSPost2010Prop37
 90
       50
102
RTVSPost2010PropOp37
 70
     1
102
RTVSPost2010Prop38
140
0.0
102
RTVSPost2010PropOp38
 70
     1
102
RTVSPost2010Prop39
140
1.0
102
RTVSPost2010PropOp39
 70
     1
102
RTVSPost2010Prop40
 90
        0
102
RTVSPost2010PropOp40
 70
     1
102
RTVSPost2010Prop41ColorIndex
 90
       18
102
RTVSPost2010Prop41ColorRGB
 90
        0
102
RTVSPost2010PropOp41
 70
     1
102
RTVSPost2010Prop42
 90
       50
102
RTVSPost2010PropOp42
 70
     1
102
RTVSPost2010Prop43
 90
        3
102
RTVSPost2010PropOp43
 70
     1
102
RTVSPost2010Prop44ColorIndex
 90
        5
102
RTVSPost2010Prop44ColorRGB
 90
      255
102
RTVSPost2010PropOp44
 70
     1
102
RTVSPost2010Prop45
280
     0
102
RTVSPost2010PropOp45
 70
     1
102
RTVSPost2010Prop46
 90
       50
102
RTVSPost2010PropOp46
 70
     1
102
RTVSPost2010Prop47
 90
       50
102
RTVSPost2010PropOp47
 70
     1
102
RTVSPost2010Prop48
 90
       50
102
RTVSPost2010PropOp48
 70
     1
102
RTVSPost2010Prop49
280
     0
102
RTVSPost2010PropOp49
 70
     1
102
RTVSPost2010Prop50
 90
       50
102
RTVSPost2010PropOp50
 70
     1
102
RTVSPost2010Prop51ColorIndex
 90
      256
102
RTVSPost2010Prop51ColorRGB
 90
-16777216
102
RTVSPost2010PropOp51
 70
     0
102
RTVSPost2010Prop52
140
1.0
102
RTVSPost2010PropOp52
 70
     0
102
RTVSPost2010Prop53
 90
        2
102
RTVSPost2010PropOp53
 70
     1
102
RTVSPost2010Prop54
  1
strokes_ogs.tif
102
RTVSPost2010PropOp54
 70
     1
102
RTVSPost2010Prop55
280
     0
102
RTVSPost2010PropOp55
 70
     1
102
RTVSPost2010Prop56
140
1.0
102
RTVSPost2010PropOp56
 70
     1
102
RTVSPost2010Prop57
140
1.0
102
RTVSPost2010PropOp57
 70
     1
102
RTVSPropertyOp0
 70
     1
102
RTVSPropertyOp1
 70
     1
102
RTVSPropertyOp2
 70
     1
102
RTVSPropertyOp3
 70
     1
102
RTVSPropertyOp4
 70
     1
102
RTVSPropertyOp5
 70
     1
102
RTVSPropertyOp6
 70
     1
102
RTVSPropertyOp7
 70
     1
102
RTVSPropertyOp8
 70
     1
102
RTVSPropertyOp9
 70
     1
102
RTVSPropertyOp10
 70
     1
102
RTVSPropertyOp11
 70
     1
102
RTVSPropertyOp12
 70
     1
102
RTVSPropertyOp13
 70
     1
102
RTVSPropertyOp14
 70
     1
102
RTVSPropertyOp15
 70
     1
102
RTVSPropertyOp16
 70
     1
102
RTVSPropertyOp17
 70
     1
102
RTVSPropertyOp18
 70
     1
102
RTVSPropertyOp19
 70
     1
102
RTVSPropertyOp20
 70
     1
102
RTVSPropertyOp21
 70
     1
102
RTVSPropertyOp22
 70
     1
102
RTVSPropertyOp23
 70
     1
102
RTVSPropertyOp24
 70
     1
102
RTVSPropertyOp25
 70
     1
102
RTVSPropertyOp26
 70
     1
102
RTVSPropertyOp27
 70
     1
102
RTVSPropertyOp28
 70
     1
102
RTVSPropertyOp29
 70
     1
102
RTVSPropertyOp30
 70
     1
102
RTVSPropertyOp31
 70
     1
102
RTVSPropertyOp32
 70
     1
102
RTVSPropertyOp33
 70
     1
102
RTVSPropertyOp34
 70
     1
102
RTVSPropertyOp35
 70
     1
102
RTVSPropertyOp36
 70
     1
102
RTVSPropertyOp37
 70
     1
102
RTVSPropertyOp38
 70
     1
102
RTVSPropertyOp39
 70
     1
102
RTVSPropertyOp40
 70
     1
102
RTVSPropertyOp41
 70
     1
102
RTVSPropertyOp42
 70
     1
102
RTVSPropertyOp43
 70
     1
102
RTVSPropertyOp44
 70
     1
102
RTVSPropertyOp45
 70
     1
102
RTVSPropertyOp46
 70
     1
102
RTVSPropertyOp47
 70
     1
102
RTVSPropertyOp48
 70
     1
102
RTVSPropertyOp49
 70
     1
102
RTVSPropertyOp50
 70
     1
102
RTVSPropertyOp51
 70
     0
102
RTVSPropertyOp52
 70
     0
102
RTVSPropertyOp53
 70
     1
102
RTVSPropertyOp54
 70
     1
102
RTVSPropertyOp55
 70
     1
102
RTVSPropertyOp56
 70
     1
102
RTVSPropertyOp57
 70
     1
102
RTVSPropertyOp58
 70
     1
102
RTVSPropertyOp59
 70
     1
102
RTVSPropertyOp60
 70
     1
102
RTVSPropertyOp61
 70
     1
102
RTVSPropertyOp62
 70
     1
  0
XRECORD
  5
2F4
102
{ACAD_REACTORS
330
2F3
102
}
330
2F3
100
AcDbXrecord
280
     1
102
RTVSPost2010Prop28
280
     0
102
RTVSPost2010PropOp28
 70
     1
102
RTVSPost2010Prop29
280
     1
102
RTVSPost2010PropOp29
 70
     1
102
RTVSPost2010Prop30
280
     1
102
RTVSPost2010PropOp30
 70
     1
102
RTVSPost2010Prop31
280
     0
102
RTVSPost2010PropOp31
 70
     1
102
RTVSPost2010Prop32
280
     0
102
RTVSPost2010PropOp32
 70
     1
102
RTVSPost2010Prop33
280
     0
102
RTVSPost2010PropOp33
 70
     1
102
RTVSPost2010Prop34
280
     0
102
RTVSPost2010PropOp34
 70
     1
102
RTVSPost2010Prop35
280
     0
102
RTVSPost2010PropOp35
 70
     1
102
RTVSPost2010Prop36
280
     0
102
RTVSPost2010PropOp36
 70
     1
102
RTVSPost2010Prop37
 90
       50
102
RTVSPost2010PropOp37
 70
     1
102
RTVSPost2010Prop38
140
0.0
102
RTVSPost2010PropOp38
 70
     1
102
RTVSPost2010Prop39
140
1.0
102
RTVSPost2010PropOp39
 70
     1
102
RTVSPost2010Prop40
 90
        0
102
RTVSPost2010PropOp40
 70
     1
102
RTVSPost2010Prop41ColorIndex
 90
       18
102
RTVSPost2010Prop41ColorRGB
 90
        0
102
RTVSPost2010PropOp41
 70
     1
102
RTVSPost2010Prop42
 90
       50
102
RTVSPost2010PropOp42
 70
     1
102
RTVSPost2010Prop43
 90
        3
102
RTVSPost2010PropOp43
 70
     1
102
RTVSPost2010Prop44ColorIndex
 90
        5
102
RTVSPost2010Prop44ColorRGB
 90
      255
102
RTVSPost2010PropOp44
 70
     1
102
RTVSPost2010Prop45
280
     0
102
RTVSPost2010PropOp45
 70
     1
102
RTVSPost2010Prop46
 90
       50
102
RTVSPost2010PropOp46
 70
     1
102
RTVSPost2010Prop47
 90
       50
102
RTVSPost2010PropOp47
 70
     1
102
RTVSPost2010Prop48
 90
       50
102
RTVSPost2010PropOp48
 70
     1
102
RTVSPost2010Prop49
280
     0
102
RTVSPost2010PropOp49
 70
     1
102
RTVSPost2010Prop50
 90
       50
102
RTVSPost2010PropOp50
 70
     1
102
RTVSPost2010Prop51ColorIndex
 90
      256
102
RTVSPost2010Prop51ColorRGB
 90
-16777216
102
RTVSPost2010PropOp51
 70
     0
102
RTVSPost2010Prop52
140
1.0
102
RTVSPost2010PropOp52
 70
     0
102
RTVSPost2010Prop53
 90
        2
102
RTVSPost2010PropOp53
 70
     1
102
RTVSPost2010Prop54
  1
strokes_ogs.tif
102
RTVSPost2010PropOp54
 70
     1
102
RTVSPost2010Prop55
280
     0
102
RTVSPost2010PropOp55
 70
     1
102
RTVSPost2010Prop56
140
1.0
102
RTVSPost2010PropOp56
 70
     1
102
RTVSPost2010Prop57
140
1.0
102
RTVSPost2010PropOp57
 70
     1
102
RTVSPropertyOp0
 70
     1
102
RTVSPropertyOp1
 70
     1
102
RTVSPropertyOp2
 70
     1
102
RTVSPropertyOp3
 70
     1
102
RTVSPropertyOp4
 70
     1
102
RTVSPropertyOp5
 70
     1
102
RTVSPropertyOp6
 70
     1
102
RTVSPropertyOp7
 70
     1
102
RTVSPropertyOp8
 70
     1
102
RTVSPropertyOp9
 70
     1
102
RTVSPropertyOp10
 70
     1
102
RTVSPropertyOp11
 70
     1
102
RTVSPropertyOp12
 70
     1
102
RTVSPropertyOp13
 70
     1
102
RTVSPropertyOp14
 70
     1
102
RTVSPropertyOp15
 70
     1
102
RTVSPropertyOp16
 70
     1
102
RTVSPropertyOp17
 70
     1
102
RTVSPropertyOp18
 70
     1
102
RTVSPropertyOp19
 70
     1
102
RTVSPropertyOp20
 70
     1
102
RTVSPropertyOp21
 70
     1
102
RTVSPropertyOp22
 70
     1
102
RTVSPropertyOp23
 70
     1
102
RTVSPropertyOp24
 70
     1
102
RTVSPropertyOp25
 70
     1
102
RTVSPropertyOp26
 70
     1
102
RTVSPropertyOp27
 70
     1
102
RTVSPropertyOp28
 70
     1
102
RTVSPropertyOp29
 70
     1
102
RTVSPropertyOp30
 70
     1
102
RTVSPropertyOp31
 70
     1
102
RTVSPropertyOp32
 70
     1
102
RTVSPropertyOp33
 70
     1
102
RTVSPropertyOp34
 70
     1
102
RTVSPropertyOp35
 70
     1
102
RTVSPropertyOp36
 70
     1
102
RTVSPropertyOp37
 70
     1
102
RTVSPropertyOp38
 70
     1
102
RTVSPropertyOp39
 70
     1
102
RTVSPropertyOp40
 70
     1
102
RTVSPropertyOp41
 70
     1
102
RTVSPropertyOp42
 70
     1
102
RTVSPropertyOp43
 70
     1
102
RTVSPropertyOp44
 70
     1
102
RTVSPropertyOp45
 70
     1
102
RTVSPropertyOp46
 70
     1
102
RTVSPropertyOp47
 70
     1
102
RTVSPropertyOp48
 70
     1
102
RTVSPropertyOp49
 70
     1
102
RTVSPropertyOp50
 70
     1
102
RTVSPropertyOp51
 70
     0
102
RTVSPropertyOp52
 70
     0
102
RTVSPropertyOp53
 70
     1
102
RTVSPropertyOp54
 70
     1
102
RTVSPropertyOp55
 70
     1
102
RTVSPropertyOp56
 70
     1
102
RTVSPropertyOp57
 70
     1
102
RTVSPropertyOp58
 70
     1
102
RTVSPropertyOp59
 70
     1
102
RTVSPropertyOp60
 70
     1
102
RTVSPropertyOp61
 70
     1
102
RTVSPropertyOp62
 70
     1
  0
XRECORD
  5
2FC
102
{ACAD_REACTORS
330
2FB
102
}
330
2FB
100
AcDbXrecord
280
     1
102
RTVSPost2010Prop28
280
     0
102
RTVSPost2010PropOp28
 70
     1
102
RTVSPost2010Prop29
280
     1
102
RTVSPost2010PropOp29
 70
     1
102
RTVSPost2010Prop30
280
     1
102
RTVSPost2010PropOp30
 70
     1
102
RTVSPost2010Prop31
280
     0
102
RTVSPost2010PropOp31
 70
     1
102
RTVSPost2010Prop32
280
     0
102
RTVSPost2010PropOp32
 70
     1
102
RTVSPost2010Prop33
280
     0
102
RTVSPost2010PropOp33
 70
     1
102
RTVSPost2010Prop34
280
     0
102
RTVSPost2010PropOp34
 70
     1
102
RTVSPost2010Prop35
280
     0
102
RTVSPost2010PropOp35
 70
     1
102
RTVSPost2010Prop36
280
     0
102
RTVSPost2010PropOp36
 70
     1
102
RTVSPost2010Prop37
 90
       50
102
RTVSPost2010PropOp37
 70
     1
102
RTVSPost2010Prop38
140
0.0
102
RTVSPost2010PropOp38
 70
     1
102
RTVSPost2010Prop39
140
1.0
102
RTVSPost2010PropOp39
 70
     1
102
RTVSPost2010Prop40
 90
        0
102
RTVSPost2010PropOp40
 70
     1
102
RTVSPost2010Prop41ColorIndex
 90
       18
102
RTVSPost2010Prop41ColorRGB
 90
        0
102
RTVSPost2010PropOp41
 70
     1
102
RTVSPost2010Prop42
 90
       50
102
RTVSPost2010PropOp42
 70
     1
102
RTVSPost2010Prop43
 90
        3
102
RTVSPost2010PropOp43
 70
     1
102
RTVSPost2010Prop44ColorIndex
 90
        5
102
RTVSPost2010Prop44ColorRGB
 90
      255
102
RTVSPost2010PropOp44
 70
     1
102
RTVSPost2010Prop45
280
     0
102
RTVSPost2010PropOp45
 70
     1
102
RTVSPost2010Prop46
 90
       50
102
RTVSPost2010PropOp46
 70
     1
102
RTVSPost2010Prop47
 90
       50
102
RTVSPost2010PropOp47
 70
     1
102
RTVSPost2010Prop48
 90
       50
102
RTVSPost2010PropOp48
 70
     1
102
RTVSPost2010Prop49
280
     0
102
RTVSPost2010PropOp49
 70
     1
102
RTVSPost2010Prop50
 90
       50
102
RTVSPost2010PropOp50
 70
     1
102
RTVSPost2010Prop51ColorIndex
 90
      256
102
RTVSPost2010Prop51ColorRGB
 90
-16777216
102
RTVSPost2010PropOp51
 70
     0
102
RTVSPost2010Prop52
140
1.0
102
RTVSPost2010PropOp52
 70
     0
102
RTVSPost2010Prop53
 90
        2
102
RTVSPost2010PropOp53
 70
     1
102
RTVSPost2010Prop54
  1
strokes_ogs.tif
102
RTVSPost2010PropOp54
 70
     1
102
RTVSPost2010Prop55
280
     0
102
RTVSPost2010PropOp55
 70
     1
102
RTVSPost2010Prop56
140
1.0
102
RTVSPost2010PropOp56
 70
     1
102
RTVSPost2010Prop57
140
1.0
102
RTVSPost2010PropOp57
 70
     1
102
RTVSPropertyOp0
 70
     1
102
RTVSPropertyOp1
 70
     1
102
RTVSPropertyOp2
 70
     1
102
RTVSPropertyOp3
 70
     1
102
RTVSPropertyOp4
 70
     1
102
RTVSPropertyOp5
 70
     1
102
RTVSPropertyOp6
 70
     1
102
RTVSPropertyOp7
 70
     1
102
RTVSPropertyOp8
 70
     1
102
RTVSPropertyOp9
 70
     1
102
RTVSPropertyOp10
 70
     1
102
RTVSPropertyOp11
 70
     1
102
RTVSPropertyOp12
 70
     1
102
RTVSPropertyOp13
 70
     1
102
RTVSPropertyOp14
 70
     1
102
RTVSPropertyOp15
 70
     1
102
RTVSPropertyOp16
 70
     1
102
RTVSPropertyOp17
 70
     1
102
RTVSPropertyOp18
 70
     1
102
RTVSPropertyOp19
 70
     1
102
RTVSPropertyOp20
 70
     1
102
RTVSPropertyOp21
 70
     1
102
RTVSPropertyOp22
 70
     1
102
RTVSPropertyOp23
 70
     1
102
RTVSPropertyOp24
 70
     1
102
RTVSPropertyOp25
 70
     1
102
RTVSPropertyOp26
 70
     1
102
RTVSPropertyOp27
 70
     1
102
RTVSPropertyOp28
 70
     1
102
RTVSPropertyOp29
 70
     1
102
RTVSPropertyOp30
 70
     1
102
RTVSPropertyOp31
 70
     1
102
RTVSPropertyOp32
 70
     1
102
RTVSPropertyOp33
 70
     1
102
RTVSPropertyOp34
 70
     1
102
RTVSPropertyOp35
 70
     1
102
RTVSPropertyOp36
 70
     1
102
RTVSPropertyOp37
 70
     1
102
RTVSPropertyOp38
 70
     1
102
RTVSPropertyOp39
 70
     1
102
RTVSPropertyOp40
 70
     1
102
RTVSPropertyOp41
 70
     1
102
RTVSPropertyOp42
 70
     1
102
RTVSPropertyOp43
 70
     1
102
RTVSPropertyOp44
 70
     1
102
RTVSPropertyOp45
 70
     1
102
RTVSPropertyOp46
 70
     1
102
RTVSPropertyOp47
 70
     1
102
RTVSPropertyOp48
 70
     1
102
RTVSPropertyOp49
 70
     1
102
RTVSPropertyOp50
 70
     1
102
RTVSPropertyOp51
 70
     0
102
RTVSPropertyOp52
 70
     0
102
RTVSPropertyOp53
 70
     1
102
RTVSPropertyOp54
 70
     1
102
RTVSPropertyOp55
 70
     1
102
RTVSPropertyOp56
 70
     1
102
RTVSPropertyOp57
 70
     1
102
RTVSPropertyOp58
 70
     1
102
RTVSPropertyOp59
 70
     1
102
RTVSPropertyOp60
 70
     1
102
RTVSPropertyOp61
 70
     1
102
RTVSPropertyOp62
 70
     1
  0
XRECORD
  5
318
102
{ACAD_REACTORS
330
317
102
}
330
317
100
AcDbXrecord
280
     1
102
RTVSPost2010Prop28
280
     0
102
RTVSPost2010PropOp28
 70
     0
102
RTVSPost2010Prop29
280
     1
102
RTVSPost2010PropOp29
 70
     0
102
RTVSPost2010Prop30
280
     1
102
RTVSPost2010PropOp30
 70
     0
102
RTVSPost2010Prop31
280
     0
102
RTVSPost2010PropOp31
 70
     0
102
RTVSPost2010Prop32
280
     0
102
RTVSPost2010PropOp32
 70
     0
102
RTVSPost2010Prop33
280
     0
102
RTVSPost2010PropOp33
 70
     0
102
RTVSPost2010Prop34
280
     0
102
RTVSPost2010PropOp34
 70
     0
102
RTVSPost2010Prop35
280
     0
102
RTVSPost2010PropOp35
 70
     0
102
RTVSPost2010Prop36
280
     0
102
RTVSPost2010PropOp36
 70
     0
102
RTVSPost2010Prop37
 90
       50
102
RTVSPost2010PropOp37
 70
     0
102
RTVSPost2010Prop38
140
0.0
102
RTVSPost2010PropOp38
 70
     0
102
RTVSPost2010Prop39
140
1.0
102
RTVSPost2010PropOp39
 70
     0
102
RTVSPost2010Prop40
 90
        0
102
RTVSPost2010PropOp40
 70
     0
102
RTVSPost2010Prop41ColorIndex
 90
       18
102
RTVSPost2010Prop41ColorRGB
 90
        0
102
RTVSPost2010PropOp41
 70
     0
102
RTVSPost2010Prop42
 90
       50
102
RTVSPost2010PropOp42
 70
     0
102
RTVSPost2010Prop43
 90
        3
102
RTVSPost2010PropOp43
 70
     0
102
RTVSPost2010Prop44ColorIndex
 90
        5
102
RTVSPost2010Prop44ColorRGB
 90
      255
102
RTVSPost2010PropOp44
 70
     0
102
RTVSPost2010Prop45
280
     0
102
RTVSPost2010PropOp45
 70
     0
102
RTVSPost2010Prop46
 90
       50
102
RTVSPost2010PropOp46
 70
     0
102
RTVSPost2010Prop47
 90
       50
102
RTVSPost2010PropOp47
 70
     0
102
RTVSPost2010Prop48
 90
       50
102
RTVSPost2010PropOp48
 70
     0
102
RTVSPost2010Prop49
280
     0
102
RTVSPost2010PropOp49
 70
     0
102
RTVSPost2010Prop50
 90
       50
102
RTVSPost2010PropOp50
 70
     0
102
RTVSPost2010Prop51ColorIndex
 90
      256
102
RTVSPost2010Prop51ColorRGB
 90
-16777216
102
RTVSPost2010PropOp51
 70
     0
102
RTVSPost2010Prop52
140
1.0
102
RTVSPost2010PropOp52
 70
     0
102
RTVSPost2010Prop53
 90
        2
102
RTVSPost2010PropOp53
 70
     0
102
RTVSPost2010Prop54
  1
strokes_ogs.tif
102
RTVSPost2010PropOp54
 70
     0
102
RTVSPost2010Prop55
280
     0
102
RTVSPost2010PropOp55
 70
     0
102
RTVSPost2010Prop56
140
1.0
102
RTVSPost2010PropOp56
 70
     0
102
RTVSPost2010Prop57
140
1.0
102
RTVSPost2010PropOp57
 70
     0
102
RTVSPropertyOp0
 70
     0
102
RTVSPropertyOp1
 70
     0
102
RTVSPropertyOp2
 70
     0
102
RTVSPropertyOp3
 70
     0
102
RTVSPropertyOp4
 70
     0
102
RTVSPropertyOp5
 70
     0
102
RTVSPropertyOp6
 70
     0
102
RTVSPropertyOp7
 70
     0
102
RTVSPropertyOp8
 70
     0
102
RTVSPropertyOp9
 70
     0
102
RTVSPropertyOp10
 70
     0
102
RTVSPropertyOp11
 70
     0
102
RTVSPropertyOp12
 70
     0
102
RTVSPropertyOp13
 70
     0
102
RTVSPropertyOp14
 70
     2
102
RTVSPropertyOp15
 70
     0
102
RTVSPropertyOp16
 70
     0
102
RTVSPropertyOp17
 70
     0
102
RTVSPropertyOp18
 70
     0
102
RTVSPropertyOp19
 70
     0
102
RTVSPropertyOp20
 70
     0
102
RTVSPropertyOp21
 70
     0
102
RTVSPropertyOp22
 70
     0
102
RTVSPropertyOp23
 70
     0
102
RTVSPropertyOp24
 70
     0
102
RTVSPropertyOp25
 70
     0
102
RTVSPropertyOp26
 70
     0
102
RTVSPropertyOp27
 70
     0
102
RTVSPropertyOp28
 70
     0
102
RTVSPropertyOp29
 70
     0
102
RTVSPropertyOp30
 70
     0
102
RTVSPropertyOp31
 70
     0
102
RTVSPropertyOp32
 70
     0
102
RTVSPropertyOp33
 70
     0
102
RTVSPropertyOp34
 70
     0
102
RTVSPropertyOp35
 70
     0
102
RTVSPropertyOp36
 70
     0
102
RTVSPropertyOp37
 70
     0
102
RTVSPropertyOp38
 70
     0
102
RTVSPropertyOp39
 70
     0
102
RTVSPropertyOp40
 70
     0
102
RTVSPropertyOp41
 70
     0
102
RTVSPropertyOp42
 70
     0
102
RTVSPropertyOp43
 70
     0
102
RTVSPropertyOp44
 70
     0
102
RTVSPropertyOp45
 70
     0
102
RTVSPropertyOp46
 70
     0
102
RTVSPropertyOp47
 70
     0
102
RTVSPropertyOp48
 70
     0
102
RTVSPropertyOp49
 70
     0
102
RTVSPropertyOp50
 70
     0
102
RTVSPropertyOp51
 70
     0
102
RTVSPropertyOp52
 70
     0
102
RTVSPropertyOp53
 70
     0
102
RTVSPropertyOp54
 70
     0
102
RTVSPropertyOp55
 70
     0
102
RTVSPropertyOp56
 70
     0
102
RTVSPropertyOp57
 70
     0
102
RTVSPropertyOp58
 70
     1
102
RTVSPropertyOp59
 70
     1
102
RTVSPropertyOp60
 70
     1
102
RTVSPropertyOp61
 70
     1
102
RTVSPropertyOp62
 70
     1
  0
XRECORD
  5
308
102
{ACAD_REACTORS
330
307
102
}
330
307
100
AcDbXrecord
280
     1
102
RTVSPost2010Prop28
280
     0
102
RTVSPost2010PropOp28
 70
     1
102
RTVSPost2010Prop29
280
     1
102
RTVSPost2010PropOp29
 70
     1
102
RTVSPost2010Prop30
280
     1
102
RTVSPost2010PropOp30
 70
     1
102
RTVSPost2010Prop31
280
     0
102
RTVSPost2010PropOp31
 70
     1
102
RTVSPost2010Prop32
280
     0
102
RTVSPost2010PropOp32
 70
     1
102
RTVSPost2010Prop33
280
     0
102
RTVSPost2010PropOp33
 70
     1
102
RTVSPost2010Prop34
280
     0
102
RTVSPost2010PropOp34
 70
     1
102
RTVSPost2010Prop35
280
     0
102
RTVSPost2010PropOp35
 70
     1
102
RTVSPost2010Prop36
280
     0
102
RTVSPost2010PropOp36
 70
     1
102
RTVSPost2010Prop37
 90
       50
102
RTVSPost2010PropOp37
 70
     1
102
RTVSPost2010Prop38
140
0.0
102
RTVSPost2010PropOp38
 70
     1
102
RTVSPost2010Prop39
140
1.0
102
RTVSPost2010PropOp39
 70
     1
102
RTVSPost2010Prop40
 90
        0
102
RTVSPost2010PropOp40
 70
     1
102
RTVSPost2010Prop41ColorIndex
 90
       18
102
RTVSPost2010Prop41ColorRGB
 90
        0
102
RTVSPost2010PropOp41
 70
     1
102
RTVSPost2010Prop42
 90
       50
102
RTVSPost2010PropOp42
 70
     1
102
RTVSPost2010Prop43
 90
        3
102
RTVSPost2010PropOp43
 70
     1
102
RTVSPost2010Prop44ColorIndex
 90
        5
102
RTVSPost2010Prop44ColorRGB
 90
      255
102
RTVSPost2010PropOp44
 70
     1
102
RTVSPost2010Prop45
280
     0
102
RTVSPost2010PropOp45
 70
     1
102
RTVSPost2010Prop46
 90
       50
102
RTVSPost2010PropOp46
 70
     1
102
RTVSPost2010Prop47
 90
       50
102
RTVSPost2010PropOp47
 70
     1
102
RTVSPost2010Prop48
 90
       50
102
RTVSPost2010PropOp48
 70
     1
102
RTVSPost2010Prop49
280
     0
102
RTVSPost2010PropOp49
 70
     1
102
RTVSPost2010Prop50
 90
       50
102
RTVSPost2010PropOp50
 70
     1
102
RTVSPost2010Prop51ColorIndex
 90
      256
102
RTVSPost2010Prop51ColorRGB
 90
-16777216
102
RTVSPost2010PropOp51
 70
     0
102
RTVSPost2010Prop52
140
1.0
102
RTVSPost2010PropOp52
 70
     0
102
RTVSPost2010Prop53
 90
        2
102
RTVSPost2010PropOp53
 70
     1
102
RTVSPost2010Prop54
  1
strokes_ogs.tif
102
RTVSPost2010PropOp54
 70
     1
102
RTVSPost2010Prop55
280
     0
102
RTVSPost2010PropOp55
 70
     1
102
RTVSPost2010Prop56
140
1.0
102
RTVSPost2010PropOp56
 70
     1
102
RTVSPost2010Prop57
140
1.0
102
RTVSPost2010PropOp57
 70
     1
102
RTVSPropertyOp0
 70
     1
102
RTVSPropertyOp1
 70
     1
102
RTVSPropertyOp2
 70
     1
102
RTVSPropertyOp3
 70
     1
102
RTVSPropertyOp4
 70
     1
102
RTVSPropertyOp5
 70
     1
102
RTVSPropertyOp6
 70
     1
102
RTVSPropertyOp7
 70
     1
102
RTVSPropertyOp8
 70
     1
102
RTVSPropertyOp9
 70
     1
102
RTVSPropertyOp10
 70
     1
102
RTVSPropertyOp11
 70
     1
102
RTVSPropertyOp12
 70
     1
102
RTVSPropertyOp13
 70
     1
102
RTVSPropertyOp14
 70
     1
102
RTVSPropertyOp15
 70
     1
102
RTVSPropertyOp16
 70
     1
102
RTVSPropertyOp17
 70
     1
102
RTVSPropertyOp18
 70
     1
102
RTVSPropertyOp19
 70
     1
102
RTVSPropertyOp20
 70
     1
102
RTVSPropertyOp21
 70
     1
102
RTVSPropertyOp22
 70
     1
102
RTVSPropertyOp23
 70
     1
102
RTVSPropertyOp24
 70
     1
102
RTVSPropertyOp25
 70
     1
102
RTVSPropertyOp26
 70
     1
102
RTVSPropertyOp27
 70
     1
102
RTVSPropertyOp28
 70
     1
102
RTVSPropertyOp29
 70
     1
102
RTVSPropertyOp30
 70
     1
102
RTVSPropertyOp31
 70
     1
102
RTVSPropertyOp32
 70
     1
102
RTVSPropertyOp33
 70
     1
102
RTVSPropertyOp34
 70
     1
102
RTVSPropertyOp35
 70
     1
102
RTVSPropertyOp36
 70
     1
102
RTVSPropertyOp37
 70
     1
102
RTVSPropertyOp38
 70
     1
102
RTVSPropertyOp39
 70
     1
102
RTVSPropertyOp40
 70
     1
102
RTVSPropertyOp41
 70
     1
102
RTVSPropertyOp42
 70
     1
102
RTVSPropertyOp43
 70
     1
102
RTVSPropertyOp44
 70
     1
102
RTVSPropertyOp45
 70
     1
102
RTVSPropertyOp46
 70
     1
102
RTVSPropertyOp47
 70
     1
102
RTVSPropertyOp48
 70
     1
102
RTVSPropertyOp49
 70
     1
102
RTVSPropertyOp50
 70
     1
102
RTVSPropertyOp51
 70
     0
102
RTVSPropertyOp52
 70
     0
102
RTVSPropertyOp53
 70
     1
102
RTVSPropertyOp54
 70
     1
102
RTVSPropertyOp55
 70
     1
102
RTVSPropertyOp56
 70
     1
102
RTVSPropertyOp57
 70
     1
102
RTVSPropertyOp58
 70
     1
102
RTVSPropertyOp59
 70
     1
102
RTVSPropertyOp60
 70
     1
102
RTVSPropertyOp61
 70
     1
102
RTVSPropertyOp62
 70
     1
  0
XRECORD
  5
31A
102
{ACAD_REACTORS
330
319
102
}
330
319
100
AcDbXrecord
280
     1
102
RTVSPost2010Prop28
280
     0
102
RTVSPost2010PropOp28
 70
     0
102
RTVSPost2010Prop29
280
     1
102
RTVSPost2010PropOp29
 70
     0
102
RTVSPost2010Prop30
280
     1
102
RTVSPost2010PropOp30
 70
     0
102
RTVSPost2010Prop31
280
     0
102
RTVSPost2010PropOp31
 70
     0
102
RTVSPost2010Prop32
280
     0
102
RTVSPost2010PropOp32
 70
     0
102
RTVSPost2010Prop33
280
     0
102
RTVSPost2010PropOp33
 70
     0
102
RTVSPost2010Prop34
280
     0
102
RTVSPost2010PropOp34
 70
     0
102
RTVSPost2010Prop35
280
     0
102
RTVSPost2010PropOp35
 70
     0
102
RTVSPost2010Prop36
280
     0
102
RTVSPost2010PropOp36
 70
     0
102
RTVSPost2010Prop37
 90
       50
102
RTVSPost2010PropOp37
 70
     0
102
RTVSPost2010Prop38
140
0.0
102
RTVSPost2010PropOp38
 70
     0
102
RTVSPost2010Prop39
140
1.0
102
RTVSPost2010PropOp39
 70
     0
102
RTVSPost2010Prop40
 90
        0
102
RTVSPost2010PropOp40
 70
     0
102
RTVSPost2010Prop41ColorIndex
 90
       18
102
RTVSPost2010Prop41ColorRGB
 90
        0
102
RTVSPost2010PropOp41
 70
     0
102
RTVSPost2010Prop42
 90
       50
102
RTVSPost2010PropOp42
 70
     0
102
RTVSPost2010Prop43
 90
        3
102
RTVSPost2010PropOp43
 70
     0
102
RTVSPost2010Prop44ColorIndex
 90
        5
102
RTVSPost2010Prop44ColorRGB
 90
      255
102
RTVSPost2010PropOp44
 70
     0
102
RTVSPost2010Prop45
280
     0
102
RTVSPost2010PropOp45
 70
     0
102
RTVSPost2010Prop46
 90
       50
102
RTVSPost2010PropOp46
 70
     0
102
RTVSPost2010Prop47
 90
       50
102
RTVSPost2010PropOp47
 70
     0
102
RTVSPost2010Prop48
 90
       50
102
RTVSPost2010PropOp48
 70
     0
102
RTVSPost2010Prop49
280
     0
102
RTVSPost2010PropOp49
 70
     0
102
RTVSPost2010Prop50
 90
       50
102
RTVSPost2010PropOp50
 70
     0
102
RTVSPost2010Prop51ColorIndex
 90
      256
102
RTVSPost2010Prop51ColorRGB
 90
-16777216
102
RTVSPost2010PropOp51
 70
     0
102
RTVSPost2010Prop52
140
1.0
102
RTVSPost2010PropOp52
 70
     0
102
RTVSPost2010Prop53
 90
        2
102
RTVSPost2010PropOp53
 70
     0
102
RTVSPost2010Prop54
  1
strokes_ogs.tif
102
RTVSPost2010PropOp54
 70
     0
102
RTVSPost2010Prop55
280
     0
102
RTVSPost2010PropOp55
 70
     0
102
RTVSPost2010Prop56
140
1.0
102
RTVSPost2010PropOp56
 70
     0
102
RTVSPost2010Prop57
140
1.0
102
RTVSPost2010PropOp57
 70
     0
102
RTVSPropertyOp0
 70
     0
102
RTVSPropertyOp1
 70
     0
102
RTVSPropertyOp2
 70
     0
102
RTVSPropertyOp3
 70
     0
102
RTVSPropertyOp4
 70
     0
102
RTVSPropertyOp5
 70
     0
102
RTVSPropertyOp6
 70
     0
102
RTVSPropertyOp7
 70
     0
102
RTVSPropertyOp8
 70
     0
102
RTVSPropertyOp9
 70
     0
102
RTVSPropertyOp10
 70
     0
102
RTVSPropertyOp11
 70
     0
102
RTVSPropertyOp12
 70
     0
102
RTVSPropertyOp13
 70
     0
102
RTVSPropertyOp14
 70
     2
102
RTVSPropertyOp15
 70
     0
102
RTVSPropertyOp16
 70
     0
102
RTVSPropertyOp17
 70
     0
102
RTVSPropertyOp18
 70
     0
102
RTVSPropertyOp19
 70
     0
102
RTVSPropertyOp20
 70
     0
102
RTVSPropertyOp21
 70
     0
102
RTVSPropertyOp22
 70
     0
102
RTVSPropertyOp23
 70
     0
102
RTVSPropertyOp24
 70
     0
102
RTVSPropertyOp25
 70
     0
102
RTVSPropertyOp26
 70
     0
102
RTVSPropertyOp27
 70
     0
102
RTVSPropertyOp28
 70
     0
102
RTVSPropertyOp29
 70
     0
102
RTVSPropertyOp30
 70
     0
102
RTVSPropertyOp31
 70
     0
102
RTVSPropertyOp32
 70
     0
102
RTVSPropertyOp33
 70
     0
102
RTVSPropertyOp34
 70
     0
102
RTVSPropertyOp35
 70
     0
102
RTVSPropertyOp36
 70
     0
102
RTVSPropertyOp37
 70
     0
102
RTVSPropertyOp38
 70
     0
102
RTVSPropertyOp39
 70
     0
102
RTVSPropertyOp40
 70
     0
102
RTVSPropertyOp41
 70
     0
102
RTVSPropertyOp42
 70
     0
102
RTVSPropertyOp43
 70
     0
102
RTVSPropertyOp44
 70
     0
102
RTVSPropertyOp45
 70
     0
102
RTVSPropertyOp46
 70
     0
102
RTVSPropertyOp47
 70
     0
102
RTVSPropertyOp48
 70
     0
102
RTVSPropertyOp49
 70
     0
102
RTVSPropertyOp50
 70
     0
102
RTVSPropertyOp51
 70
     0
102
RTVSPropertyOp52
 70
     0
102
RTVSPropertyOp53
 70
     0
102
RTVSPropertyOp54
 70
     0
102
RTVSPropertyOp55
 70
     0
102
RTVSPropertyOp56
 70
     0
102
RTVSPropertyOp57
 70
     0
102
RTVSPropertyOp58
 70
     1
102
RTVSPropertyOp59
 70
     1
102
RTVSPropertyOp60
 70
     1
102
RTVSPropertyOp61
 70
     1
102
RTVSPropertyOp62
 70
     1
  0
XRECORD
  5
300
102
{ACAD_REACTORS
330
2FF
102
}
330
2FF
100
AcDbXrecord
280
     1
102
RTVSPost2010Prop28
280
     0
102
RTVSPost2010PropOp28
 70
     1
102
RTVSPost2010Prop29
280
     1
102
RTVSPost2010PropOp29
 70
     1
102
RTVSPost2010Prop30
280
     1
102
RTVSPost2010PropOp30
 70
     1
102
RTVSPost2010Prop31
280
     0
102
RTVSPost2010PropOp31
 70
     1
102
RTVSPost2010Prop32
280
     0
102
RTVSPost2010PropOp32
 70
     1
102
RTVSPost2010Prop33
280
     0
102
RTVSPost2010PropOp33
 70
     1
102
RTVSPost2010Prop34
280
     0
102
RTVSPost2010PropOp34
 70
     1
102
RTVSPost2010Prop35
280
     0
102
RTVSPost2010PropOp35
 70
     1
102
RTVSPost2010Prop36
280
     0
102
RTVSPost2010PropOp36
 70
     1
102
RTVSPost2010Prop37
 90
       50
102
RTVSPost2010PropOp37
 70
     1
102
RTVSPost2010Prop38
140
0.0
102
RTVSPost2010PropOp38
 70
     1
102
RTVSPost2010Prop39
140
1.0
102
RTVSPost2010PropOp39
 70
     1
102
RTVSPost2010Prop40
 90
        0
102
RTVSPost2010PropOp40
 70
     1
102
RTVSPost2010Prop41ColorIndex
 90
       18
102
RTVSPost2010Prop41ColorRGB
 90
        0
102
RTVSPost2010PropOp41
 70
     1
102
RTVSPost2010Prop42
 90
       50
102
RTVSPost2010PropOp42
 70
     1
102
RTVSPost2010Prop43
 90
        3
102
RTVSPost2010PropOp43
 70
     1
102
RTVSPost2010Prop44ColorIndex
 90
        5
102
RTVSPost2010Prop44ColorRGB
 90
      255
102
RTVSPost2010PropOp44
 70
     1
102
RTVSPost2010Prop45
280
     0
102
RTVSPost2010PropOp45
 70
     1
102
RTVSPost2010Prop46
 90
       50
102
RTVSPost2010PropOp46
 70
     1
102
RTVSPost2010Prop47
 90
       50
102
RTVSPost2010PropOp47
 70
     1
102
RTVSPost2010Prop48
 90
       50
102
RTVSPost2010PropOp48
 70
     1
102
RTVSPost2010Prop49
280
     0
102
RTVSPost2010PropOp49
 70
     1
102
RTVSPost2010Prop50
 90
       50
102
RTVSPost2010PropOp50
 70
     1
102
RTVSPost2010Prop51ColorIndex
 90
      256
102
RTVSPost2010Prop51ColorRGB
 90
-16777216
102
RTVSPost2010PropOp51
 70
     0
102
RTVSPost2010Prop52
140
1.0
102
RTVSPost2010PropOp52
 70
     0
102
RTVSPost2010Prop53
 90
        2
102
RTVSPost2010PropOp53
 70
     1
102
RTVSPost2010Prop54
  1
strokes_ogs.tif
102
RTVSPost2010PropOp54
 70
     1
102
RTVSPost2010Prop55
280
     0
102
RTVSPost2010PropOp55
 70
     1
102
RTVSPost2010Prop56
140
1.0
102
RTVSPost2010PropOp56
 70
     1
102
RTVSPost2010Prop57
140
1.0
102
RTVSPost2010PropOp57
 70
     1
102
RTVSPropertyOp0
 70
     1
102
RTVSPropertyOp1
 70
     1
102
RTVSPropertyOp2
 70
     1
102
RTVSPropertyOp3
 70
     1
102
RTVSPropertyOp4
 70
     1
102
RTVSPropertyOp5
 70
     1
102
RTVSPropertyOp6
 70
     1
102
RTVSPropertyOp7
 70
     1
102
RTVSPropertyOp8
 70
     1
102
RTVSPropertyOp9
 70
     1
102
RTVSPropertyOp10
 70
     1
102
RTVSPropertyOp11
 70
     1
102
RTVSPropertyOp12
 70
     1
102
RTVSPropertyOp13
 70
     1
102
RTVSPropertyOp14
 70
     1
102
RTVSPropertyOp15
 70
     1
102
RTVSPropertyOp16
 70
     1
102
RTVSPropertyOp17
 70
     1
102
RTVSPropertyOp18
 70
     1
102
RTVSPropertyOp19
 70
     1
102
RTVSPropertyOp20
 70
     1
102
RTVSPropertyOp21
 70
     1
102
RTVSPropertyOp22
 70
     1
102
RTVSPropertyOp23
 70
     1
102
RTVSPropertyOp24
 70
     1
102
RTVSPropertyOp25
 70
     1
102
RTVSPropertyOp26
 70
     1
102
RTVSPropertyOp27
 70
     1
102
RTVSPropertyOp28
 70
     1
102
RTVSPropertyOp29
 70
     1
102
RTVSPropertyOp30
 70
     1
102
RTVSPropertyOp31
 70
     1
102
RTVSPropertyOp32
 70
     1
102
RTVSPropertyOp33
 70
     1
102
RTVSPropertyOp34
 70
     1
102
RTVSPropertyOp35
 70
     1
102
RTVSPropertyOp36
 70
     1
102
RTVSPropertyOp37
 70
     1
102
RTVSPropertyOp38
 70
     1
102
RTVSPropertyOp39
 70
     1
102
RTVSPropertyOp40
 70
     1
102
RTVSPropertyOp41
 70
     1
102
RTVSPropertyOp42
 70
     1
102
RTVSPropertyOp43
 70
     1
102
RTVSPropertyOp44
 70
     1
102
RTVSPropertyOp45
 70
     1
102
RTVSPropertyOp46
 70
     1
102
RTVSPropertyOp47
 70
     1
102
RTVSPropertyOp48
 70
     1
102
RTVSPropertyOp49
 70
     1
102
RTVSPropertyOp50
 70
     1
102
RTVSPropertyOp51
 70
     0
102
RTVSPropertyOp52
 70
     0
102
RTVSPropertyOp53
 70
     1
102
RTVSPropertyOp54
 70
     1
102
RTVSPropertyOp55
 70
     1
102
RTVSPropertyOp56
 70
     1
102
RTVSPropertyOp57
 70
     1
102
RTVSPropertyOp58
 70
     1
102
RTVSPropertyOp59
 70
     1
102
RTVSPropertyOp60
 70
     1
102
RTVSPropertyOp61
 70
     1
102
RTVSPropertyOp62
 70
     1
  0
XRECORD
  5
316
102
{ACAD_REACTORS
330
315
102
}
330
315
100
AcDbXrecord
280
     1
102
RTVSPost2010Prop28
280
     0
102
RTVSPost2010PropOp28
 70
     1
102
RTVSPost2010Prop29
280
     1
102
RTVSPost2010PropOp29
 70
     1
102
RTVSPost2010Prop30
280
     1
102
RTVSPost2010PropOp30
 70
     1
102
RTVSPost2010Prop31
280
     0
102
RTVSPost2010PropOp31
 70
     1
102
RTVSPost2010Prop32
280
     0
102
RTVSPost2010PropOp32
 70
     1
102
RTVSPost2010Prop33
280
     0
102
RTVSPost2010PropOp33
 70
     1
102
RTVSPost2010Prop34
280
     0
102
RTVSPost2010PropOp34
 70
     1
102
RTVSPost2010Prop35
280
     0
102
RTVSPost2010PropOp35
 70
     1
102
RTVSPost2010Prop36
280
     0
102
RTVSPost2010PropOp36
 70
     1
102
RTVSPost2010Prop37
 90
       50
102
RTVSPost2010PropOp37
 70
     1
102
RTVSPost2010Prop38
140
0.0
102
RTVSPost2010PropOp38
 70
     1
102
RTVSPost2010Prop39
140
1.0
102
RTVSPost2010PropOp39
 70
     1
102
RTVSPost2010Prop40
 90
        0
102
RTVSPost2010PropOp40
 70
     1
102
RTVSPost2010Prop41ColorIndex
 90
       18
102
RTVSPost2010Prop41ColorRGB
 90
        0
102
RTVSPost2010PropOp41
 70
     1
102
RTVSPost2010Prop42
 90
       50
102
RTVSPost2010PropOp42
 70
     1
102
RTVSPost2010Prop43
 90
        3
102
RTVSPost2010PropOp43
 70
     1
102
RTVSPost2010Prop44ColorIndex
 90
        5
102
RTVSPost2010Prop44ColorRGB
 90
      255
102
RTVSPost2010PropOp44
 70
     1
102
RTVSPost2010Prop45
280
     0
102
RTVSPost2010PropOp45
 70
     1
102
RTVSPost2010Prop46
 90
       50
102
RTVSPost2010PropOp46
 70
     1
102
RTVSPost2010Prop47
 90
       50
102
RTVSPost2010PropOp47
 70
     1
102
RTVSPost2010Prop48
 90
       50
102
RTVSPost2010PropOp48
 70
     1
102
RTVSPost2010Prop49
280
     0
102
RTVSPost2010PropOp49
 70
     1
102
RTVSPost2010Prop50
 90
       50
102
RTVSPost2010PropOp50
 70
     1
102
RTVSPost2010Prop51ColorIndex
 90
      256
102
RTVSPost2010Prop51ColorRGB
 90
-16777216
102
RTVSPost2010PropOp51
 70
     0
102
RTVSPost2010Prop52
140
1.0
102
RTVSPost2010PropOp52
 70
     0
102
RTVSPost2010Prop53
 90
        2
102
RTVSPost2010PropOp53
 70
     1
102
RTVSPost2010Prop54
  1
strokes_ogs.tif
102
RTVSPost2010PropOp54
 70
     1
102
RTVSPost2010Prop55
280
     0
102
RTVSPost2010PropOp55
 70
     1
102
RTVSPost2010Prop56
140
1.0
102
RTVSPost2010PropOp56
 70
     1
102
RTVSPost2010Prop57
140
1.0
102
RTVSPost2010PropOp57
 70
     1
102
RTVSPropertyOp0
 70
     1
102
RTVSPropertyOp1
 70
     1
102
RTVSPropertyOp2
 70
     1
102
RTVSPropertyOp3
 70
     1
102
RTVSPropertyOp4
 70
     1
102
RTVSPropertyOp5
 70
     1
102
RTVSPropertyOp6
 70
     1
102
RTVSPropertyOp7
 70
     1
102
RTVSPropertyOp8
 70
     1
102
RTVSPropertyOp9
 70
     1
102
RTVSPropertyOp10
 70
     1
102
RTVSPropertyOp11
 70
     1
102
RTVSPropertyOp12
 70
     1
102
RTVSPropertyOp13
 70
     1
102
RTVSPropertyOp14
 70
     1
102
RTVSPropertyOp15
 70
     1
102
RTVSPropertyOp16
 70
     1
102
RTVSPropertyOp17
 70
     1
102
RTVSPropertyOp18
 70
     1
102
RTVSPropertyOp19
 70
     1
102
RTVSPropertyOp20
 70
     1
102
RTVSPropertyOp21
 70
     1
102
RTVSPropertyOp22
 70
     1
102
RTVSPropertyOp23
 70
     1
102
RTVSPropertyOp24
 70
     1
102
RTVSPropertyOp25
 70
     1
102
RTVSPropertyOp26
 70
     1
102
RTVSPropertyOp27
 70
     1
102
RTVSPropertyOp28
 70
     1
102
RTVSPropertyOp29
 70
     1
102
RTVSPropertyOp30
 70
     1
102
RTVSPropertyOp31
 70
     1
102
RTVSPropertyOp32
 70
     1
102
RTVSPropertyOp33
 70
     1
102
RTVSPropertyOp34
 70
     1
102
RTVSPropertyOp35
 70
     1
102
RTVSPropertyOp36
 70
     1
102
RTVSPropertyOp37
 70
     1
102
RTVSPropertyOp38
 70
     1
102
RTVSPropertyOp39
 70
     1
102
RTVSPropertyOp40
 70
     1
102
RTVSPropertyOp41
 70
     1
102
RTVSPropertyOp42
 70
     1
102
RTVSPropertyOp43
 70
     1
102
RTVSPropertyOp44
 70
     1
102
RTVSPropertyOp45
 70
     1
102
RTVSPropertyOp46
 70
     1
102
RTVSPropertyOp47
 70
     1
102
RTVSPropertyOp48
 70
     1
102
RTVSPropertyOp49
 70
     1
102
RTVSPropertyOp50
 70
     1
102
RTVSPropertyOp51
 70
     0
102
RTVSPropertyOp52
 70
     0
102
RTVSPropertyOp53
 70
     1
102
RTVSPropertyOp54
 70
     1
102
RTVSPropertyOp55
 70
     1
102
RTVSPropertyOp56
 70
     1
102
RTVSPropertyOp57
 70
     1
102
RTVSPropertyOp58
 70
     1
102
RTVSPropertyOp59
 70
     1
102
RTVSPropertyOp60
 70
     1
102
RTVSPropertyOp61
 70
     1
102
RTVSPropertyOp62
 70
     1
  0
XRECORD
  5
314
102
{ACAD_REACTORS
330
313
102
}
330
313
100
AcDbXrecord
280
     1
102
RTVSPost2010Prop28
280
     0
102
RTVSPost2010PropOp28
 70
     1
102
RTVSPost2010Prop29
280
     1
102
RTVSPost2010PropOp29
 70
     1
102
RTVSPost2010Prop30
280
     1
102
RTVSPost2010PropOp30
 70
     1
102
RTVSPost2010Prop31
280
     0
102
RTVSPost2010PropOp31
 70
     1
102
RTVSPost2010Prop32
280
     0
102
RTVSPost2010PropOp32
 70
     1
102
RTVSPost2010Prop33
280
     0
102
RTVSPost2010PropOp33
 70
     1
102
RTVSPost2010Prop34
280
     0
102
RTVSPost2010PropOp34
 70
     1
102
RTVSPost2010Prop35
280
     0
102
RTVSPost2010PropOp35
 70
     1
102
RTVSPost2010Prop36
280
     0
102
RTVSPost2010PropOp36
 70
     1
102
RTVSPost2010Prop37
 90
       50
102
RTVSPost2010PropOp37
 70
     1
102
RTVSPost2010Prop38
140
0.0
102
RTVSPost2010PropOp38
 70
     1
102
RTVSPost2010Prop39
140
1.0
102
RTVSPost2010PropOp39
 70
     1
102
RTVSPost2010Prop40
 90
        0
102
RTVSPost2010PropOp40
 70
     1
102
RTVSPost2010Prop41ColorIndex
 90
       18
102
RTVSPost2010Prop41ColorRGB
 90
        0
102
RTVSPost2010PropOp41
 70
     1
102
RTVSPost2010Prop42
 90
       50
102
RTVSPost2010PropOp42
 70
     1
102
RTVSPost2010Prop43
 90
        3
102
RTVSPost2010PropOp43
 70
     1
102
RTVSPost2010Prop44ColorIndex
 90
        5
102
RTVSPost2010Prop44ColorRGB
 90
      255
102
RTVSPost2010PropOp44
 70
     1
102
RTVSPost2010Prop45
280
     0
102
RTVSPost2010PropOp45
 70
     1
102
RTVSPost2010Prop46
 90
       50
102
RTVSPost2010PropOp46
 70
     1
102
RTVSPost2010Prop47
 90
       50
102
RTVSPost2010PropOp47
 70
     1
102
RTVSPost2010Prop48
 90
       50
102
RTVSPost2010PropOp48
 70
     1
102
RTVSPost2010Prop49
280
     0
102
RTVSPost2010PropOp49
 70
     1
102
RTVSPost2010Prop50
 90
       50
102
RTVSPost2010PropOp50
 70
     1
102
RTVSPost2010Prop51ColorIndex
 90
      256
102
RTVSPost2010Prop51ColorRGB
 90
-16777216
102
RTVSPost2010PropOp51
 70
     0
102
RTVSPost2010Prop52
140
1.0
102
RTVSPost2010PropOp52
 70
     0
102
RTVSPost2010Prop53
 90
        2
102
RTVSPost2010PropOp53
 70
     1
102
RTVSPost2010Prop54
  1
strokes_ogs.tif
102
RTVSPost2010PropOp54
 70
     1
102
RTVSPost2010Prop55
280
     0
102
RTVSPost2010PropOp55
 70
     1
102
RTVSPost2010Prop56
140
1.0
102
RTVSPost2010PropOp56
 70
     1
102
RTVSPost2010Prop57
140
1.0
102
RTVSPost2010PropOp57
 70
     1
102
RTVSPropertyOp0
 70
     1
102
RTVSPropertyOp1
 70
     1
102
RTVSPropertyOp2
 70
     1
102
RTVSPropertyOp3
 70
     1
102
RTVSPropertyOp4
 70
     1
102
RTVSPropertyOp5
 70
     1
102
RTVSPropertyOp6
 70
     1
102
RTVSPropertyOp7
 70
     1
102
RTVSPropertyOp8
 70
     1
102
RTVSPropertyOp9
 70
     1
102
RTVSPropertyOp10
 70
     1
102
RTVSPropertyOp11
 70
     1
102
RTVSPropertyOp12
 70
     1
102
RTVSPropertyOp13
 70
     1
102
RTVSPropertyOp14
 70
     1
102
RTVSPropertyOp15
 70
     1
102
RTVSPropertyOp16
 70
     1
102
RTVSPropertyOp17
 70
     1
102
RTVSPropertyOp18
 70
     1
102
RTVSPropertyOp19
 70
     1
102
RTVSPropertyOp20
 70
     1
102
RTVSPropertyOp21
 70
     1
102
RTVSPropertyOp22
 70
     1
102
RTVSPropertyOp23
 70
     1
102
RTVSPropertyOp24
 70
     1
102
RTVSPropertyOp25
 70
     1
102
RTVSPropertyOp26
 70
     1
102
RTVSPropertyOp27
 70
     1
102
RTVSPropertyOp28
 70
     1
102
RTVSPropertyOp29
 70
     1
102
RTVSPropertyOp30
 70
     1
102
RTVSPropertyOp31
 70
     1
102
RTVSPropertyOp32
 70
     1
102
RTVSPropertyOp33
 70
     1
102
RTVSPropertyOp34
 70
     1
102
RTVSPropertyOp35
 70
     1
102
RTVSPropertyOp36
 70
     1
102
RTVSPropertyOp37
 70
     1
102
RTVSPropertyOp38
 70
     1
102
RTVSPropertyOp39
 70
     1
102
RTVSPropertyOp40
 70
     1
102
RTVSPropertyOp41
 70
     1
102
RTVSPropertyOp42
 70
     1
102
RTVSPropertyOp43
 70
     1
102
RTVSPropertyOp44
 70
     1
102
RTVSPropertyOp45
 70
     1
102
RTVSPropertyOp46
 70
     1
102
RTVSPropertyOp47
 70
     1
102
RTVSPropertyOp48
 70
     1
102
RTVSPropertyOp49
 70
     1
102
RTVSPropertyOp50
 70
     1
102
RTVSPropertyOp51
 70
     0
102
RTVSPropertyOp52
 70
     0
102
RTVSPropertyOp53
 70
     1
102
RTVSPropertyOp54
 70
     1
102
RTVSPropertyOp55
 70
     1
102
RTVSPropertyOp56
 70
     1
102
RTVSPropertyOp57
 70
     1
102
RTVSPropertyOp58
 70
     1
102
RTVSPropertyOp59
 70
     1
102
RTVSPropertyOp60
 70
     1
102
RTVSPropertyOp61
 70
     1
102
RTVSPropertyOp62
 70
     1
  0
XRECORD
  5
30E
102
{ACAD_REACTORS
330
30D
102
}
330
30D
100
AcDbXrecord
280
     1
102
RTVSPost2010Prop28
280
     0
102
RTVSPost2010PropOp28
 70
     1
102
RTVSPost2010Prop29
280
     1
102
RTVSPost2010PropOp29
 70
     1
102
RTVSPost2010Prop30
280
     1
102
RTVSPost2010PropOp30
 70
     1
102
RTVSPost2010Prop31
280
     0
102
RTVSPost2010PropOp31
 70
     1
102
RTVSPost2010Prop32
280
     0
102
RTVSPost2010PropOp32
 70
     1
102
RTVSPost2010Prop33
280
     0
102
RTVSPost2010PropOp33
 70
     1
102
RTVSPost2010Prop34
280
     0
102
RTVSPost2010PropOp34
 70
     1
102
RTVSPost2010Prop35
280
     0
102
RTVSPost2010PropOp35
 70
     1
102
RTVSPost2010Prop36
280
     0
102
RTVSPost2010PropOp36
 70
     1
102
RTVSPost2010Prop37
 90
       50
102
RTVSPost2010PropOp37
 70
     1
102
RTVSPost2010Prop38
140
0.0
102
RTVSPost2010PropOp38
 70
     1
102
RTVSPost2010Prop39
140
1.0
102
RTVSPost2010PropOp39
 70
     1
102
RTVSPost2010Prop40
 90
        0
102
RTVSPost2010PropOp40
 70
     1
102
RTVSPost2010Prop41ColorIndex
 90
       18
102
RTVSPost2010Prop41ColorRGB
 90
        0
102
RTVSPost2010PropOp41
 70
     1
102
RTVSPost2010Prop42
 90
       50
102
RTVSPost2010PropOp42
 70
     1
102
RTVSPost2010Prop43
 90
        3
102
RTVSPost2010PropOp43
 70
     1
102
RTVSPost2010Prop44ColorIndex
 90
        5
102
RTVSPost2010Prop44ColorRGB
 90
      255
102
RTVSPost2010PropOp44
 70
     1
102
RTVSPost2010Prop45
280
     0
102
RTVSPost2010PropOp45
 70
     1
102
RTVSPost2010Prop46
 90
       50
102
RTVSPost2010PropOp46
 70
     1
102
RTVSPost2010Prop47
 90
       50
102
RTVSPost2010PropOp47
 70
     1
102
RTVSPost2010Prop48
 90
       50
102
RTVSPost2010PropOp48
 70
     1
102
RTVSPost2010Prop49
280
     0
102
RTVSPost2010PropOp49
 70
     1
102
RTVSPost2010Prop50
 90
       50
102
RTVSPost2010PropOp50
 70
     1
102
RTVSPost2010Prop51ColorIndex
 90
      256
102
RTVSPost2010Prop51ColorRGB
 90
-16777216
102
RTVSPost2010PropOp51
 70
     0
102
RTVSPost2010Prop52
140
1.0
102
RTVSPost2010PropOp52
 70
     0
102
RTVSPost2010Prop53
 90
        2
102
RTVSPost2010PropOp53
 70
     1
102
RTVSPost2010Prop54
  1
strokes_ogs.tif
102
RTVSPost2010PropOp54
 70
     1
102
RTVSPost2010Prop55
280
     0
102
RTVSPost2010PropOp55
 70
     1
102
RTVSPost2010Prop56
140
1.0
102
RTVSPost2010PropOp56
 70
     1
102
RTVSPost2010Prop57
140
1.0
102
RTVSPost2010PropOp57
 70
     1
102
RTVSPropertyOp0
 70
     1
102
RTVSPropertyOp1
 70
     1
102
RTVSPropertyOp2
 70
     1
102
RTVSPropertyOp3
 70
     1
102
RTVSPropertyOp4
 70
     1
102
RTVSPropertyOp5
 70
     1
102
RTVSPropertyOp6
 70
     1
102
RTVSPropertyOp7
 70
     1
102
RTVSPropertyOp8
 70
     1
102
RTVSPropertyOp9
 70
     1
102
RTVSPropertyOp10
 70
     1
102
RTVSPropertyOp11
 70
     1
102
RTVSPropertyOp12
 70
     1
102
RTVSPropertyOp13
 70
     1
102
RTVSPropertyOp14
 70
     1
102
RTVSPropertyOp15
 70
     1
102
RTVSPropertyOp16
 70
     1
102
RTVSPropertyOp17
 70
     1
102
RTVSPropertyOp18
 70
     1
102
RTVSPropertyOp19
 70
     1
102
RTVSPropertyOp20
 70
     1
102
RTVSPropertyOp21
 70
     1
102
RTVSPropertyOp22
 70
     1
102
RTVSPropertyOp23
 70
     1
102
RTVSPropertyOp24
 70
     1
102
RTVSPropertyOp25
 70
     1
102
RTVSPropertyOp26
 70
     1
102
RTVSPropertyOp27
 70
     1
102
RTVSPropertyOp28
 70
     1
102
RTVSPropertyOp29
 70
     1
102
RTVSPropertyOp30
 70
     1
102
RTVSPropertyOp31
 70
     1
102
RTVSPropertyOp32
 70
     1
102
RTVSPropertyOp33
 70
     1
102
RTVSPropertyOp34
 70
     1
102
RTVSPropertyOp35
 70
     1
102
RTVSPropertyOp36
 70
     1
102
RTVSPropertyOp37
 70
     1
102
RTVSPropertyOp38
 70
     1
102
RTVSPropertyOp39
 70
     1
102
RTVSPropertyOp40
 70
     1
102
RTVSPropertyOp41
 70
     1
102
RTVSPropertyOp42
 70
     1
102
RTVSPropertyOp43
 70
     1
102
RTVSPropertyOp44
 70
     1
102
RTVSPropertyOp45
 70
     1
102
RTVSPropertyOp46
 70
     1
102
RTVSPropertyOp47
 70
     1
102
RTVSPropertyOp48
 70
     1
102
RTVSPropertyOp49
 70
     1
102
RTVSPropertyOp50
 70
     1
102
RTVSPropertyOp51
 70
     0
102
RTVSPropertyOp52
 70
     0
102
RTVSPropertyOp53
 70
     1
102
RTVSPropertyOp54
 70
     1
102
RTVSPropertyOp55
 70
     1
102
RTVSPropertyOp56
 70
     1
102
RTVSPropertyOp57
 70
     1
102
RTVSPropertyOp58
 70
     1
102
RTVSPropertyOp59
 70
     1
102
RTVSPropertyOp60
 70
     1
102
RTVSPropertyOp61
 70
     1
102
RTVSPropertyOp62
 70
     1
  0
XRECORD
  5
310
102
{ACAD_REACTORS
330
30F
102
}
330
30F
100
AcDbXrecord
280
     1
102
RTVSPost2010Prop28
280
     0
102
RTVSPost2010PropOp28
 70
     1
102
RTVSPost2010Prop29
280
     1
102
RTVSPost2010PropOp29
 70
     1
102
RTVSPost2010Prop30
280
     1
102
RTVSPost2010PropOp30
 70
     1
102
RTVSPost2010Prop31
280
     0
102
RTVSPost2010PropOp31
 70
     1
102
RTVSPost2010Prop32
280
     0
102
RTVSPost2010PropOp32
 70
     1
102
RTVSPost2010Prop33
280
     0
102
RTVSPost2010PropOp33
 70
     1
102
RTVSPost2010Prop34
280
     0
102
RTVSPost2010PropOp34
 70
     1
102
RTVSPost2010Prop35
280
     0
102
RTVSPost2010PropOp35
 70
     1
102
RTVSPost2010Prop36
280
     0
102
RTVSPost2010PropOp36
 70
     1
102
RTVSPost2010Prop37
 90
       50
102
RTVSPost2010PropOp37
 70
     1
102
RTVSPost2010Prop38
140
0.0
102
RTVSPost2010PropOp38
 70
     1
102
RTVSPost2010Prop39
140
1.0
102
RTVSPost2010PropOp39
 70
     1
102
RTVSPost2010Prop40
 90
        0
102
RTVSPost2010PropOp40
 70
     1
102
RTVSPost2010Prop41ColorIndex
 90
       18
102
RTVSPost2010Prop41ColorRGB
 90
        0
102
RTVSPost2010PropOp41
 70
     1
102
RTVSPost2010Prop42
 90
       50
102
RTVSPost2010PropOp42
 70
     1
102
RTVSPost2010Prop43
 90
        3
102
RTVSPost2010PropOp43
 70
     1
102
RTVSPost2010Prop44ColorIndex
 90
        5
102
RTVSPost2010Prop44ColorRGB
 90
      255
102
RTVSPost2010PropOp44
 70
     1
102
RTVSPost2010Prop45
280
     0
102
RTVSPost2010PropOp45
 70
     1
102
RTVSPost2010Prop46
 90
       50
102
RTVSPost2010PropOp46
 70
     1
102
RTVSPost2010Prop47
 90
       50
102
RTVSPost2010PropOp47
 70
     1
102
RTVSPost2010Prop48
 90
       50
102
RTVSPost2010PropOp48
 70
     1
102
RTVSPost2010Prop49
280
     0
102
RTVSPost2010PropOp49
 70
     1
102
RTVSPost2010Prop50
 90
       50
102
RTVSPost2010PropOp50
 70
     1
102
RTVSPost2010Prop51ColorIndex
 90
      256
102
RTVSPost2010Prop51ColorRGB
 90
-16777216
102
RTVSPost2010PropOp51
 70
     0
102
RTVSPost2010Prop52
140
1.0
102
RTVSPost2010PropOp52
 70
     0
102
RTVSPost2010Prop53
 90
        2
102
RTVSPost2010PropOp53
 70
     1
102
RTVSPost2010Prop54
  1
strokes_ogs.tif
102
RTVSPost2010PropOp54
 70
     1
102
RTVSPost2010Prop55
280
     0
102
RTVSPost2010PropOp55
 70
     1
102
RTVSPost2010Prop56
140
1.0
102
RTVSPost2010PropOp56
 70
     1
102
RTVSPost2010Prop57
140
1.0
102
RTVSPost2010PropOp57
 70
     1
102
RTVSPropertyOp0
 70
     1
102
RTVSPropertyOp1
 70
     1
102
RTVSPropertyOp2
 70
     1
102
RTVSPropertyOp3
 70
     1
102
RTVSPropertyOp4
 70
     1
102
RTVSPropertyOp5
 70
     1
102
RTVSPropertyOp6
 70
     1
102
RTVSPropertyOp7
 70
     1
102
RTVSPropertyOp8
 70
     1
102
RTVSPropertyOp9
 70
     1
102
RTVSPropertyOp10
 70
     1
102
RTVSPropertyOp11
 70
     1
102
RTVSPropertyOp12
 70
     1
102
RTVSPropertyOp13
 70
     1
102
RTVSPropertyOp14
 70
     1
102
RTVSPropertyOp15
 70
     1
102
RTVSPropertyOp16
 70
     1
102
RTVSPropertyOp17
 70
     1
102
RTVSPropertyOp18
 70
     1
102
RTVSPropertyOp19
 70
     1
102
RTVSPropertyOp20
 70
     1
102
RTVSPropertyOp21
 70
     1
102
RTVSPropertyOp22
 70
     1
102
RTVSPropertyOp23
 70
     1
102
RTVSPropertyOp24
 70
     1
102
RTVSPropertyOp25
 70
     1
102
RTVSPropertyOp26
 70
     1
102
RTVSPropertyOp27
 70
     1
102
RTVSPropertyOp28
 70
     1
102
RTVSPropertyOp29
 70
     1
102
RTVSPropertyOp30
 70
     1
102
RTVSPropertyOp31
 70
     1
102
RTVSPropertyOp32
 70
     1
102
RTVSPropertyOp33
 70
     1
102
RTVSPropertyOp34
 70
     1
102
RTVSPropertyOp35
 70
     1
102
RTVSPropertyOp36
 70
     1
102
RTVSPropertyOp37
 70
     1
102
RTVSPropertyOp38
 70
     1
102
RTVSPropertyOp39
 70
     1
102
RTVSPropertyOp40
 70
     1
102
RTVSPropertyOp41
 70
     1
102
RTVSPropertyOp42
 70
     1
102
RTVSPropertyOp43
 70
     1
102
RTVSPropertyOp44
 70
     1
102
RTVSPropertyOp45
 70
     1
102
RTVSPropertyOp46
 70
     1
102
RTVSPropertyOp47
 70
     1
102
RTVSPropertyOp48
 70
     1
102
RTVSPropertyOp49
 70
     1
102
RTVSPropertyOp50
 70
     1
102
RTVSPropertyOp51
 70
     0
102
RTVSPropertyOp52
 70
     0
102
RTVSPropertyOp53
 70
     1
102
RTVSPropertyOp54
 70
     1
102
RTVSPropertyOp55
 70
     1
102
RTVSPropertyOp56
 70
     1
102
RTVSPropertyOp57
 70
     1
102
RTVSPropertyOp58
 70
     1
102
RTVSPropertyOp59
 70
     1
102
RTVSPropertyOp60
 70
     1
102
RTVSPropertyOp61
 70
     1
102
RTVSPropertyOp62
 70
     1
  0
XRECORD
  5
306
102
{ACAD_REACTORS
330
305
102
}
330
305
100
AcDbXrecord
280
     1
102
RTVSPost2010Prop28
280
     0
102
RTVSPost2010PropOp28
 70
     1
102
RTVSPost2010Prop29
280
     1
102
RTVSPost2010PropOp29
 70
     1
102
RTVSPost2010Prop30
280
     1
102
RTVSPost2010PropOp30
 70
     1
102
RTVSPost2010Prop31
280
     0
102
RTVSPost2010PropOp31
 70
     1
102
RTVSPost2010Prop32
280
     0
102
RTVSPost2010PropOp32
 70
     1
102
RTVSPost2010Prop33
280
     0
102
RTVSPost2010PropOp33
 70
     1
102
RTVSPost2010Prop34
280
     0
102
RTVSPost2010PropOp34
 70
     1
102
RTVSPost2010Prop35
280
     0
102
RTVSPost2010PropOp35
 70
     1
102
RTVSPost2010Prop36
280
     0
102
RTVSPost2010PropOp36
 70
     1
102
RTVSPost2010Prop37
 90
       50
102
RTVSPost2010PropOp37
 70
     1
102
RTVSPost2010Prop38
140
0.0
102
RTVSPost2010PropOp38
 70
     1
102
RTVSPost2010Prop39
140
1.0
102
RTVSPost2010PropOp39
 70
     1
102
RTVSPost2010Prop40
 90
        0
102
RTVSPost2010PropOp40
 70
     1
102
RTVSPost2010Prop41ColorIndex
 90
       18
102
RTVSPost2010Prop41ColorRGB
 90
        0
102
RTVSPost2010PropOp41
 70
     1
102
RTVSPost2010Prop42
 90
       50
102
RTVSPost2010PropOp42
 70
     1
102
RTVSPost2010Prop43
 90
        3
102
RTVSPost2010PropOp43
 70
     1
102
RTVSPost2010Prop44ColorIndex
 90
        5
102
RTVSPost2010Prop44ColorRGB
 90
      255
102
RTVSPost2010PropOp44
 70
     1
102
RTVSPost2010Prop45
280
     0
102
RTVSPost2010PropOp45
 70
     1
102
RTVSPost2010Prop46
 90
       50
102
RTVSPost2010PropOp46
 70
     1
102
RTVSPost2010Prop47
 90
       50
102
RTVSPost2010PropOp47
 70
     1
102
RTVSPost2010Prop48
 90
       50
102
RTVSPost2010PropOp48
 70
     1
102
RTVSPost2010Prop49
280
     0
102
RTVSPost2010PropOp49
 70
     1
102
RTVSPost2010Prop50
 90
       50
102
RTVSPost2010PropOp50
 70
     1
102
RTVSPost2010Prop51ColorIndex
 90
      256
102
RTVSPost2010Prop51ColorRGB
 90
-16777216
102
RTVSPost2010PropOp51
 70
     0
102
RTVSPost2010Prop52
140
1.0
102
RTVSPost2010PropOp52
 70
     0
102
RTVSPost2010Prop53
 90
        2
102
RTVSPost2010PropOp53
 70
     1
102
RTVSPost2010Prop54
  1
strokes_ogs.tif
102
RTVSPost2010PropOp54
 70
     1
102
RTVSPost2010Prop55
280
     0
102
RTVSPost2010PropOp55
 70
     1
102
RTVSPost2010Prop56
140
1.0
102
RTVSPost2010PropOp56
 70
     1
102
RTVSPost2010Prop57
140
1.0
102
RTVSPost2010PropOp57
 70
     1
102
RTVSPropertyOp0
 70
     1
102
RTVSPropertyOp1
 70
     1
102
RTVSPropertyOp2
 70
     1
102
RTVSPropertyOp3
 70
     1
102
RTVSPropertyOp4
 70
     1
102
RTVSPropertyOp5
 70
     1
102
RTVSPropertyOp6
 70
     1
102
RTVSPropertyOp7
 70
     1
102
RTVSPropertyOp8
 70
     1
102
RTVSPropertyOp9
 70
     1
102
RTVSPropertyOp10
 70
     1
102
RTVSPropertyOp11
 70
     1
102
RTVSPropertyOp12
 70
     1
102
RTVSPropertyOp13
 70
     1
102
RTVSPropertyOp14
 70
     1
102
RTVSPropertyOp15
 70
     1
102
RTVSPropertyOp16
 70
     1
102
RTVSPropertyOp17
 70
     1
102
RTVSPropertyOp18
 70
     1
102
RTVSPropertyOp19
 70
     1
102
RTVSPropertyOp20
 70
     1
102
RTVSPropertyOp21
 70
     1
102
RTVSPropertyOp22
 70
     1
102
RTVSPropertyOp23
 70
     1
102
RTVSPropertyOp24
 70
     1
102
RTVSPropertyOp25
 70
     1
102
RTVSPropertyOp26
 70
     1
102
RTVSPropertyOp27
 70
     1
102
RTVSPropertyOp28
 70
     1
102
RTVSPropertyOp29
 70
     1
102
RTVSPropertyOp30
 70
     1
102
RTVSPropertyOp31
 70
     1
102
RTVSPropertyOp32
 70
     1
102
RTVSPropertyOp33
 70
     1
102
RTVSPropertyOp34
 70
     1
102
RTVSPropertyOp35
 70
     1
102
RTVSPropertyOp36
 70
     1
102
RTVSPropertyOp37
 70
     1
102
RTVSPropertyOp38
 70
     1
102
RTVSPropertyOp39
 70
     1
102
RTVSPropertyOp40
 70
     1
102
RTVSPropertyOp41
 70
     1
102
RTVSPropertyOp42
 70
     1
102
RTVSPropertyOp43
 70
     1
102
RTVSPropertyOp44
 70
     1
102
RTVSPropertyOp45
 70
     1
102
RTVSPropertyOp46
 70
     1
102
RTVSPropertyOp47
 70
     1
102
RTVSPropertyOp48
 70
     1
102
RTVSPropertyOp49
 70
     1
102
RTVSPropertyOp50
 70
     1
102
RTVSPropertyOp51
 70
     0
102
RTVSPropertyOp52
 70
     0
102
RTVSPropertyOp53
 70
     1
102
RTVSPropertyOp54
 70
     1
102
RTVSPropertyOp55
 70
     1
102
RTVSPropertyOp56
 70
     1
102
RTVSPropertyOp57
 70
     1
102
RTVSPropertyOp58
 70
     1
102
RTVSPropertyOp59
 70
     1
102
RTVSPropertyOp60
 70
     1
102
RTVSPropertyOp61
 70
     1
102
RTVSPropertyOp62
 70
     1
  0
XRECORD
  5
2FA
102
{ACAD_REACTORS
330
2F9
102
}
330
2F9
100
AcDbXrecord
280
     1
102
RTVSPost2010Prop28
280
     0
102
RTVSPost2010PropOp28
 70
     1
102
RTVSPost2010Prop29
280
     1
102
RTVSPost2010PropOp29
 70
     1
102
RTVSPost2010Prop30
280
     1
102
RTVSPost2010PropOp30
 70
     1
102
RTVSPost2010Prop31
280
     0
102
RTVSPost2010PropOp31
 70
     1
102
RTVSPost2010Prop32
280
     0
102
RTVSPost2010PropOp32
 70
     1
102
RTVSPost2010Prop33
280
     0
102
RTVSPost2010PropOp33
 70
     1
102
RTVSPost2010Prop34
280
     0
102
RTVSPost2010PropOp34
 70
     1
102
RTVSPost2010Prop35
280
     0
102
RTVSPost2010PropOp35
 70
     1
102
RTVSPost2010Prop36
280
     0
102
RTVSPost2010PropOp36
 70
     1
102
RTVSPost2010Prop37
 90
       50
102
RTVSPost2010PropOp37
 70
     1
102
RTVSPost2010Prop38
140
0.0
102
RTVSPost2010PropOp38
 70
     1
102
RTVSPost2010Prop39
140
1.0
102
RTVSPost2010PropOp39
 70
     1
102
RTVSPost2010Prop40
 90
        0
102
RTVSPost2010PropOp40
 70
     1
102
RTVSPost2010Prop41ColorIndex
 90
       18
102
RTVSPost2010Prop41ColorRGB
 90
        0
102
RTVSPost2010PropOp41
 70
     1
102
RTVSPost2010Prop42
 90
       50
102
RTVSPost2010PropOp42
 70
     1
102
RTVSPost2010Prop43
 90
        3
102
RTVSPost2010PropOp43
 70
     1
102
RTVSPost2010Prop44ColorIndex
 90
        5
102
RTVSPost2010Prop44ColorRGB
 90
      255
102
RTVSPost2010PropOp44
 70
     1
102
RTVSPost2010Prop45
280
     0
102
RTVSPost2010PropOp45
 70
     1
102
RTVSPost2010Prop46
 90
       50
102
RTVSPost2010PropOp46
 70
     1
102
RTVSPost2010Prop47
 90
       50
102
RTVSPost2010PropOp47
 70
     1
102
RTVSPost2010Prop48
 90
       50
102
RTVSPost2010PropOp48
 70
     1
102
RTVSPost2010Prop49
280
     0
102
RTVSPost2010PropOp49
 70
     1
102
RTVSPost2010Prop50
 90
       50
102
RTVSPost2010PropOp50
 70
     1
102
RTVSPost2010Prop51ColorIndex
 90
      256
102
RTVSPost2010Prop51ColorRGB
 90
-16777216
102
RTVSPost2010PropOp51
 70
     0
102
RTVSPost2010Prop52
140
1.0
102
RTVSPost2010PropOp52
 70
     0
102
RTVSPost2010Prop53
 90
        2
102
RTVSPost2010PropOp53
 70
     1
102
RTVSPost2010Prop54
  1
strokes_ogs.tif
102
RTVSPost2010PropOp54
 70
     1
102
RTVSPost2010Prop55
280
     0
102
RTVSPost2010PropOp55
 70
     1
102
RTVSPost2010Prop56
140
1.0
102
RTVSPost2010PropOp56
 70
     1
102
RTVSPost2010Prop57
140
1.0
102
RTVSPost2010PropOp57
 70
     1
102
RTVSPropertyOp0
 70
     1
102
RTVSPropertyOp1
 70
     1
102
RTVSPropertyOp2
 70
     1
102
RTVSPropertyOp3
 70
     1
102
RTVSPropertyOp4
 70
     1
102
RTVSPropertyOp5
 70
     1
102
RTVSPropertyOp6
 70
     1
102
RTVSPropertyOp7
 70
     1
102
RTVSPropertyOp8
 70
     1
102
RTVSPropertyOp9
 70
     1
102
RTVSPropertyOp10
 70
     1
102
RTVSPropertyOp11
 70
     1
102
RTVSPropertyOp12
 70
     1
102
RTVSPropertyOp13
 70
     1
102
RTVSPropertyOp14
 70
     1
102
RTVSPropertyOp15
 70
     1
102
RTVSPropertyOp16
 70
     1
102
RTVSPropertyOp17
 70
     1
102
RTVSPropertyOp18
 70
     1
102
RTVSPropertyOp19
 70
     1
102
RTVSPropertyOp20
 70
     1
102
RTVSPropertyOp21
 70
     1
102
RTVSPropertyOp22
 70
     1
102
RTVSPropertyOp23
 70
     1
102
RTVSPropertyOp24
 70
     1
102
RTVSPropertyOp25
 70
     1
102
RTVSPropertyOp26
 70
     1
102
RTVSPropertyOp27
 70
     1
102
RTVSPropertyOp28
 70
     1
102
RTVSPropertyOp29
 70
     1
102
RTVSPropertyOp30
 70
     1
102
RTVSPropertyOp31
 70
     1
102
RTVSPropertyOp32
 70
     1
102
RTVSPropertyOp33
 70
     1
102
RTVSPropertyOp34
 70
     1
102
RTVSPropertyOp35
 70
     1
102
RTVSPropertyOp36
 70
     1
102
RTVSPropertyOp37
 70
     1
102
RTVSPropertyOp38
 70
     1
102
RTVSPropertyOp39
 70
     1
102
RTVSPropertyOp40
 70
     1
102
RTVSPropertyOp41
 70
     1
102
RTVSPropertyOp42
 70
     1
102
RTVSPropertyOp43
 70
     1
102
RTVSPropertyOp44
 70
     1
102
RTVSPropertyOp45
 70
     1
102
RTVSPropertyOp46
 70
     1
102
RTVSPropertyOp47
 70
     1
102
RTVSPropertyOp48
 70
     1
102
RTVSPropertyOp49
 70
     1
102
RTVSPropertyOp50
 70
     1
102
RTVSPropertyOp51
 70
     0
102
RTVSPropertyOp52
 70
     0
102
RTVSPropertyOp53
 70
     1
102
RTVSPropertyOp54
 70
     1
102
RTVSPropertyOp55
 70
     1
102
RTVSPropertyOp56
 70
     1
102
RTVSPropertyOp57
 70
     1
102
RTVSPropertyOp58
 70
     1
102
RTVSPropertyOp59
 70
     1
102
RTVSPropertyOp60
 70
     1
102
RTVSPropertyOp61
 70
     1
102
RTVSPropertyOp62
 70
     1
  0
XRECORD
  5
312
102
{ACAD_REACTORS
330
311
102
}
330
311
100
AcDbXrecord
280
     1
102
RTVSPost2010Prop28
280
     0
102
RTVSPost2010PropOp28
 70
     1
102
RTVSPost2010Prop29
280
     1
102
RTVSPost2010PropOp29
 70
     1
102
RTVSPost2010Prop30
280
     1
102
RTVSPost2010PropOp30
 70
     1
102
RTVSPost2010Prop31
280
     0
102
RTVSPost2010PropOp31
 70
     1
102
RTVSPost2010Prop32
280
     0
102
RTVSPost2010PropOp32
 70
     1
102
RTVSPost2010Prop33
280
     0
102
RTVSPost2010PropOp33
 70
     1
102
RTVSPost2010Prop34
280
     0
102
RTVSPost2010PropOp34
 70
     1
102
RTVSPost2010Prop35
280
     0
102
RTVSPost2010PropOp35
 70
     1
102
RTVSPost2010Prop36
280
     0
102
RTVSPost2010PropOp36
 70
     1
102
RTVSPost2010Prop37
 90
       50
102
RTVSPost2010PropOp37
 70
     1
102
RTVSPost2010Prop38
140
0.0
102
RTVSPost2010PropOp38
 70
     1
102
RTVSPost2010Prop39
140
1.0
102
RTVSPost2010PropOp39
 70
     1
102
RTVSPost2010Prop40
 90
        0
102
RTVSPost2010PropOp40
 70
     1
102
RTVSPost2010Prop41ColorIndex
 90
       18
102
RTVSPost2010Prop41ColorRGB
 90
        0
102
RTVSPost2010PropOp41
 70
     1
102
RTVSPost2010Prop42
 90
       50
102
RTVSPost2010PropOp42
 70
     1
102
RTVSPost2010Prop43
 90
        3
102
RTVSPost2010PropOp43
 70
     1
102
RTVSPost2010Prop44ColorIndex
 90
        5
102
RTVSPost2010Prop44ColorRGB
 90
      255
102
RTVSPost2010PropOp44
 70
     1
102
RTVSPost2010Prop45
280
     0
102
RTVSPost2010PropOp45
 70
     1
102
RTVSPost2010Prop46
 90
       50
102
RTVSPost2010PropOp46
 70
     1
102
RTVSPost2010Prop47
 90
       50
102
RTVSPost2010PropOp47
 70
     1
102
RTVSPost2010Prop48
 90
       50
102
RTVSPost2010PropOp48
 70
     1
102
RTVSPost2010Prop49
280
     0
102
RTVSPost2010PropOp49
 70
     1
102
RTVSPost2010Prop50
 90
       50
102
RTVSPost2010PropOp50
 70
     1
102
RTVSPost2010Prop51ColorIndex
 90
      256
102
RTVSPost2010Prop51ColorRGB
 90
-16777216
102
RTVSPost2010PropOp51
 70
     0
102
RTVSPost2010Prop52
140
1.0
102
RTVSPost2010PropOp52
 70
     0
102
RTVSPost2010Prop53
 90
        2
102
RTVSPost2010PropOp53
 70
     1
102
RTVSPost2010Prop54
  1
strokes_ogs.tif
102
RTVSPost2010PropOp54
 70
     1
102
RTVSPost2010Prop55
280
     0
102
RTVSPost2010PropOp55
 70
     1
102
RTVSPost2010Prop56
140
1.0
102
RTVSPost2010PropOp56
 70
     1
102
RTVSPost2010Prop57
140
1.0
102
RTVSPost2010PropOp57
 70
     1
102
RTVSPropertyOp0
 70
     1
102
RTVSPropertyOp1
 70
     1
102
RTVSPropertyOp2
 70
     1
102
RTVSPropertyOp3
 70
     1
102
RTVSPropertyOp4
 70
     1
102
RTVSPropertyOp5
 70
     1
102
RTVSPropertyOp6
 70
     1
102
RTVSPropertyOp7
 70
     1
102
RTVSPropertyOp8
 70
     1
102
RTVSPropertyOp9
 70
     1
102
RTVSPropertyOp10
 70
     1
102
RTVSPropertyOp11
 70
     1
102
RTVSPropertyOp12
 70
     1
102
RTVSPropertyOp13
 70
     1
102
RTVSPropertyOp14
 70
     1
102
RTVSPropertyOp15
 70
     1
102
RTVSPropertyOp16
 70
     1
102
RTVSPropertyOp17
 70
     1
102
RTVSPropertyOp18
 70
     1
102
RTVSPropertyOp19
 70
     1
102
RTVSPropertyOp20
 70
     1
102
RTVSPropertyOp21
 70
     1
102
RTVSPropertyOp22
 70
     1
102
RTVSPropertyOp23
 70
     1
102
RTVSPropertyOp24
 70
     1
102
RTVSPropertyOp25
 70
     1
102
RTVSPropertyOp26
 70
     1
102
RTVSPropertyOp27
 70
     1
102
RTVSPropertyOp28
 70
     1
102
RTVSPropertyOp29
 70
     1
102
RTVSPropertyOp30
 70
     1
102
RTVSPropertyOp31
 70
     1
102
RTVSPropertyOp32
 70
     1
102
RTVSPropertyOp33
 70
     1
102
RTVSPropertyOp34
 70
     1
102
RTVSPropertyOp35
 70
     1
102
RTVSPropertyOp36
 70
     1
102
RTVSPropertyOp37
 70
     1
102
RTVSPropertyOp38
 70
     1
102
RTVSPropertyOp39
 70
     1
102
RTVSPropertyOp40
 70
     1
102
RTVSPropertyOp41
 70
     1
102
RTVSPropertyOp42
 70
     1
102
RTVSPropertyOp43
 70
     1
102
RTVSPropertyOp44
 70
     1
102
RTVSPropertyOp45
 70
     1
102
RTVSPropertyOp46
 70
     1
102
RTVSPropertyOp47
 70
     1
102
RTVSPropertyOp48
 70
     1
102
RTVSPropertyOp49
 70
     1
102
RTVSPropertyOp50
 70
     1
102
RTVSPropertyOp51
 70
     0
102
RTVSPropertyOp52
 70
     0
102
RTVSPropertyOp53
 70
     1
102
RTVSPropertyOp54
 70
     1
102
RTVSPropertyOp55
 70
     1
102
RTVSPropertyOp56
 70
     1
102
RTVSPropertyOp57
 70
     1
102
RTVSPropertyOp58
 70
     1
102
RTVSPropertyOp59
 70
     1
102
RTVSPropertyOp60
 70
     1
102
RTVSPropertyOp61
 70
     1
102
RTVSPropertyOp62
 70
     1
  0
ENDSEC
  0
EOF
